  0
SECTION
  2
HEADER
  9
$ACADVER
  1
AC1015
  9
$ACADMAINTVER
 70
     6
  9
$DWGCODEPAGE
  3
ANSI_932
  9
$INSBASE
 10
0.0
 20
0.0
 30
0.0
  9
$EXTMIN
 10
0.0
 20
0.0
 30
1.000000E+20
  9
$EXTMAX
 10
1260.0
 20
891.0
 30
-1.000000E+20
  9
$LIMMIN
 10
0.0
 20
0.0
  9
$LIMMAX
 10
1260.0
 20
891.0
  9
$ORTHOMODE
 70
     0
  9
$REGENMODE
 70
     1
  9
$FILLMODE
 70
     1
  9
$QTEXTMODE
 70
     0
  9
$MIRRTEXT
 70
     1
  9
$LTSCALE
 40
1.0
  9
$ATTMODE
 70
     1
  9
$TEXTSIZE
 40
2.5
  9
$TRACEWID
 40
1.0
  9
$TEXTSTYLE
  7
Standard
  9
$CLAYER
  8
0
  9
$CELTYPE
  6
ByLayer
  9
$CECOLOR
 62
   256
  9
$CELTSCALE
 40
1.0
  9
$DISPSILH
 70
     0
  9
$DIMSCALE
 40
1.0
  9
$DIMASZ
 40
2.5
  9
$DIMEXO
 40
0.625
  9
$DIMDLI
 40
3.75
  9
$DIMRND
 40
0.0
  9
$DIMDLE
 40
0.0
  9
$DIMEXE
 40
1.25
  9
$DIMTP
 40
0.0
  9
$DIMTM
 40
0.0
  9
$DIMTXT
 40
2.5
  9
$DIMCEN
 40
2.5
  9
$DIMTSZ
 40
0.0
  9
$DIMTOL
 70
     0
  9
$DIMLIM
 70
     0
  9
$DIMTIH
 70
     0
  9
$DIMTOH
 70
     0
  9
$DIMSE1
 70
     0
  9
$DIMSE2
 70
     0
  9
$DIMTAD
 70
     1
  9
$DIMZIN
 70
     8
  9
$DIMBLK
  1

  9
$DIMASO
 70
     1
  9
$DIMSHO
 70
     1
  9
$DIMPOST
  1

  9
$DIMAPOST
  1

  9
$DIMALT
 70
     0
  9
$DIMALTD
 70
     3
  9
$DIMALTF
 40
0.03937007874016
  9
$DIMLFAC
 40
1.0
  9
$DIMTOFL
 70
     1
  9
$DIMTVP
 40
0.0
  9
$DIMTIX
 70
     0
  9
$DIMSOXD
 70
     0
  9
$DIMSAH
 70
     0
  9
$DIMBLK1
  1

  9
$DIMBLK2
  1

  9
$DIMSTYLE
  2
ISO-25
  9
$DIMCLRD
 70
     0
  9
$DIMCLRE
 70
     0
  9
$DIMCLRT
 70
     0
  9
$DIMTFAC
 40
1.0
  9
$DIMGAP
 40
0.625
  9
$DIMJUST
 70
     0
  9
$DIMSD1
 70
     0
  9
$DIMSD2
 70
     0
  9
$DIMTOLJ
 70
     0
  9
$DIMTZIN
 70
     8
  9
$DIMALTZ
 70
     0
  9
$DIMALTTZ
 70
     0
  9
$DIMUPT
 70
     0
  9
$DIMDEC
 70
     2
  9
$DIMTDEC
 70
     2
  9
$DIMALTU
 70
     2
  9
$DIMALTTD
 70
     3
  9
$DIMTXSTY
  7
Standard
  9
$DIMAUNIT
 70
     0
  9
$DIMADEC
 70
     0
  9
$DIMALTRND
 40
0.0
  9
$DIMAZIN
 70
     0
  9
$DIMDSEP
 70
    46
  9
$DIMATFIT
 70
     3
  9
$DIMFRAC
 70
     0
  9
$DIMLDRBLK
  1

  9
$DIMLUNIT
 70
     2
  9
$DIMLWD
 70
    -2
  9
$DIMLWE
 70
    -2
  9
$DIMTMOVE
 70
     0
  9
$LUNITS
 70
     2
  9
$LUPREC
 70
     4
  9
$SKETCHINC
 40
1.0
  9
$FILLETRAD
 40
10.0
  9
$AUNITS
 70
     0
  9
$AUPREC
 70
     0
  9
$MENU
  1
.
  9
$ELEVATION
 40
0.0
  9
$PELEVATION
 40
0.0
  9
$THICKNESS
 40
0.0
  9
$LIMCHECK
 70
     0
  9
$CHAMFERA
 40
10.0
  9
$CHAMFERB
 40
10.0
  9
$CHAMFERC
 40
20.0
  9
$CHAMFERD
 40
0.0
  9
$SKPOLY
 70
     0
  9
$TDCREATE
 40
2456676.000000
  9
$TDUCREATE
 40
0.000000000
  9
$TDUPDATE
 40
2456676.000000
  9
$TDUUPDATE
 40
2456676.000000
  9
$TDINDWG
 40
0.0
  9
$TDUSRTIMER
 40
0.0
  9
$USRTIMER
 70
     1
  9
$ANGBASE
 50
0.0
  9
$ANGDIR
 70
     0
  9
$PDMODE
 70
     0
  9
$PDSIZE
 40
0.0
  9
$PLINEWID
 40
0.0
  9
$SPLFRAME
 70
     0
  9
$SPLINETYPE
 70
     6
  9
$SPLINESEGS
 70
     8
  9
$HANDSEED
  5
0667
  9
$SURFTAB1
 70
     6
  9
$SURFTAB2
 70
     6
  9
$SURFTYPE
 70
     6
  9
$SURFU
 70
     6
  9
$SURFV
 70
     6
  9
$UCSBASE
  2

  9
$UCSNAME
  2

  9
$UCSORG
 10
0.0
 20
0.0
 30
0.0
  9
$UCSXDIR
 10
1.0
 20
0.0
 30
0.0
  9
$UCSYDIR
 10
0.0
 20
1.0
 30
0.0
  9
$UCSORTHOREF
  2

  9
$UCSORTHOVIEW
 70
     0
  9
$UCSORGTOP
 10
0.0
 20
0.0
 30
0.0
  9
$UCSORGBOTTOM
 10
0.0
 20
0.0
 30
0.0
  9
$UCSORGLEFT
 10
0.0
 20
0.0
 30
0.0
  9
$UCSORGRIGHT
 10
0.0
 20
0.0
 30
0.0
  9
$UCSORGFRONT
 10
0.0
 20
0.0
 30
0.0
  9
$UCSORGBACK
 10
0.0
 20
0.0
 30
0.0
  9
$PUCSBASE
  2

  9
$PUCSNAME
  2

  9
$PUCSORG
 10
0.0
 20
0.0
 30
0.0
  9
$PUCSXDIR
 10
1.0
 20
0.0
 30
0.0
  9
$PUCSYDIR
 10
0.0
 20
1.0
 30
0.0
  9
$PUCSORTHOREF
  2

  9
$PUCSORTHOVIEW
 70
     0
  9
$PUCSORGTOP
 10
0.0
 20
0.0
 30
0.0
  9
$PUCSORGBOTTOM
 10
0.0
 20
0.0
 30
0.0
  9
$PUCSORGLEFT
 10
0.0
 20
0.0
 30
0.0
  9
$PUCSORGRIGHT
 10
0.0
 20
0.0
 30
0.0
  9
$PUCSORGFRONT
 10
0.0
 20
0.0
 30
0.0
  9
$PUCSORGBACK
 10
0.0
 20
0.0
 30
0.0
  9
$USERI1
 70
     0
  9
$USERI2
 70
     0
  9
$USERI3
 70
     0
  9
$USERI4
 70
     0
  9
$USERI5
 70
     0
  9
$USERR1
 40
0.0
  9
$USERR2
 40
0.0
  9
$USERR3
 40
0.0
  9
$USERR4
 40
0.0
  9
$USERR5
 40
0.0
  9
$WORLDVIEW
 70
     1
  9
$SHADEDGE
 70
     3
  9
$SHADEDIF
 70
    70
  9
$TILEMODE
 70
     1
  9
$MAXACTVP
 70
    64
  9
$PINSBASE
 10
0.0
 20
0.0
 30
0.0
  9
$PLIMCHECK
 70
     0
  9
$PEXTMIN
 10
1.000000E+20
 20
1.000000E+20
 30
1.000000E+20
  9
$PEXTMAX
 10
-1.000000E+20
 20
-1.000000E+20
 30
-1.000000E+20
  9
$PLIMMIN
 10
0.0
 20
0.0
  9
$PLIMMAX
 10
0.0
 20
0.0
  9
$UNITMODE
 70
     0
  9
$VISRETAIN
 70
     0
  9
$PLINEGEN
 70
     0
  9
$PSLTSCALE
 70
     1
  9
$TREEDEPTH
 70
  3020
  9
$CMLSTYLE
  2
STANDARD
  9
$CMLJUST
 70
     0
  9
$CMLSCALE
 40
20.0
  9
$PROXYGRAPHICS
 70
     1
  9
$MEASUREMENT
 70
     1
  9
$CELWEIGHT
370
    -1
  9
$ENDCAPS
280
     0
  9
$JOINSTYLE
280
     0
  9
$LWDISPLAY
290
     0
  9
$INSUNITS
 70
     4
  9
$HYPERLINKBASE
  1

  9
$STYLESHEET
  1

  9
$XEDIT
290
     1
  9
$CEPSNTYPE
380
     0
  9
$PSTYLEMODE
290
     1
  9
$FINGERPRINTGUID
  2
{DF37E5E8-2454-0949-DCDE-9A52D5F97675}
  9
$VERSIONGUID
  2
{CA82159F-E74B-97B4-0BEE-BD5C0F362F64}
  9
$EXTNAMES
290
     1
  9
$PSVPSCALE
 40
0.0
  0
ENDSEC
  0
SECTION
  2
CLASSES
  0
ENDSEC
  0
SECTION
  2
TABLES
  0
TABLE
  2
VPORT
  5
8
330
0
100
AcDbSymbolTable
 70
     3
  0
VPORT
  5
29
330
8
100
AcDbSymbolTableRecord
100
AcDbViewportTableRecord
  2
*Active
 70
     0
 10
0.0
 20
0.0
 11
1.0
 21
1.0
 12
630.0
 22
445.5
 13
0.0
 23
0.0
 14
10.0
 24
10.0
 15
0.0
 25
0.0
 16
0.0
 26
0.0
 36
1.0
 17
0.0
 27
0.0
 37
0.0
 40
891.0
 41
1.414141414
 42
50.0
 43
0.0
 44
0.0
 50
0.0
 51
0.0
 71
     0
 72
     0
 73
     0
 74
     0
 75
     0
 76
     0
 77
     0
 78
     0
281
     0
 65
     0
110
0.0
120
0.0
130
0.0
111
1.0
121
0.0
131
0.0
112
0.0
122
1.0
132
0.0
 79
     0
146
0.0
  0
ENDTAB
  0
TABLE
  2
LTYPE
  5
5
330
0
100
AcDbSymbolTable
 70
     3
  0
LTYPE
  5
14
330
5
100
AcDbSymbolTableRecord
100
AcDbLinetypeTableRecord
  2
ByBlock
 70
     0
  3

 72
    65
 73
     0
 40
0.0
  0
LTYPE
  5
15
330
5
100
AcDbSymbolTableRecord
100
AcDbLinetypeTableRecord
  2
ByLayer
 70
     0
  3

 72
    65
 73
     0
 40
0.0
  0
LTYPE
  5
16
330
5
100
AcDbSymbolTableRecord
100
AcDbLinetypeTableRecord
  2
Continuous
 70
     0
  3
Solid line
 72
    65
 73
     0
 40
0.0
  0
ENDTAB
  0
TABLE
  2
LAYER
  5
2
330
0
100
AcDbSymbolTable
 70
   128
  0
LAYER
  5
10
330
2
100
AcDbSymbolTableRecord
100
AcDbLayerTableRecord
  2
0
 70
     0
 62
     7
  6
Continuous
290
     1
370
    -3
390
F
  0
LAYER
  5
2A
330
2
100
AcDbSymbolTableRecord
100
AcDbLayerTableRecord
  2
2
 70
     0
 62
     7
  6
Continuous
290
     1
370
    -3
390
F
  0
LAYER
  5
2B
330
2
100
AcDbSymbolTableRecord
100
AcDbLayerTableRecord
  2
3
 70
     0
 62
     7
  6
Continuous
290
     1
370
    -3
390
F
  0
LAYER
  5
2C
330
2
100
AcDbSymbolTableRecord
100
AcDbLayerTableRecord
  2
4
 70
     0
 62
     7
  6
Continuous
290
     1
370
    -3
390
F
  0
LAYER
  5
2D
330
2
100
AcDbSymbolTableRecord
100
AcDbLayerTableRecord
  2
5
 70
     0
 62
     7
  6
Continuous
290
     1
370
    -3
390
F
  0
LAYER
  5
2E
330
2
100
AcDbSymbolTableRecord
100
AcDbLayerTableRecord
  2
6
 70
     0
 62
     7
  6
Continuous
290
     1
370
    -3
390
F
  0
LAYER
  5
2F
330
2
100
AcDbSymbolTableRecord
100
AcDbLayerTableRecord
  2
7
 70
     0
 62
     7
  6
Continuous
290
     1
370
    -3
390
F
  0
LAYER
  5
30
330
2
100
AcDbSymbolTableRecord
100
AcDbLayerTableRecord
  2
8
 70
     0
 62
     7
  6
Continuous
290
     1
370
    -3
390
F
  0
LAYER
  5
31
330
2
100
AcDbSymbolTableRecord
100
AcDbLayerTableRecord
  2
9
 70
     0
 62
     7
  6
Continuous
290
     1
370
    -3
390
F
  0
LAYER
  5
32
330
2
100
AcDbSymbolTableRecord
100
AcDbLayerTableRecord
  2
10
 70
     0
 62
     7
  6
Continuous
290
     1
370
    -3
390
F
  0
LAYER
  5
33
330
2
100
AcDbSymbolTableRecord
100
AcDbLayerTableRecord
  2
11
 70
     0
 62
     7
  6
Continuous
290
     1
370
    -3
390
F
  0
LAYER
  5
34
330
2
100
AcDbSymbolTableRecord
100
AcDbLayerTableRecord
  2
12
 70
     0
 62
     7
  6
Continuous
290
     1
370
    -3
390
F
  0
LAYER
  5
35
330
2
100
AcDbSymbolTableRecord
100
AcDbLayerTableRecord
  2
13
 70
     0
 62
     7
  6
Continuous
290
     1
370
    -3
390
F
  0
LAYER
  5
36
330
2
100
AcDbSymbolTableRecord
100
AcDbLayerTableRecord
  2
14
 70
     0
 62
     7
  6
Continuous
290
     1
370
    -3
390
F
  0
LAYER
  5
37
330
2
100
AcDbSymbolTableRecord
100
AcDbLayerTableRecord
  2
15
 70
     0
 62
     7
  6
Continuous
290
     1
370
    -3
390
F
  0
LAYER
  5
38
330
2
100
AcDbSymbolTableRecord
100
AcDbLayerTableRecord
  2
16
 70
     0
 62
     7
  6
Continuous
290
     1
370
    -3
390
F
  0
LAYER
  5
39
330
2
100
AcDbSymbolTableRecord
100
AcDbLayerTableRecord
  2
17
 70
     0
 62
     7
  6
Continuous
290
     1
370
    -3
390
F
  0
LAYER
  5
3A
330
2
100
AcDbSymbolTableRecord
100
AcDbLayerTableRecord
  2
18
 70
     0
 62
     7
  6
Continuous
290
     1
370
    -3
390
F
  0
LAYER
  5
3B
330
2
100
AcDbSymbolTableRecord
100
AcDbLayerTableRecord
  2
19
 70
     0
 62
     7
  6
Continuous
290
     1
370
    -3
390
F
  0
LAYER
  5
3C
330
2
100
AcDbSymbolTableRecord
100
AcDbLayerTableRecord
  2
20
 70
     0
 62
     7
  6
Continuous
290
     1
370
    -3
390
F
  0
LAYER
  5
3D
330
2
100
AcDbSymbolTableRecord
100
AcDbLayerTableRecord
  2
21
 70
     0
 62
     7
  6
Continuous
290
     1
370
    -3
390
F
  0
LAYER
  5
3E
330
2
100
AcDbSymbolTableRecord
100
AcDbLayerTableRecord
  2
22
 70
     0
 62
     7
  6
Continuous
290
     1
370
    -3
390
F
  0
LAYER
  5
3F
330
2
100
AcDbSymbolTableRecord
100
AcDbLayerTableRecord
  2
23
 70
     0
 62
     7
  6
Continuous
290
     1
370
    -3
390
F
  0
LAYER
  5
40
330
2
100
AcDbSymbolTableRecord
100
AcDbLayerTableRecord
  2
24
 70
     0
 62
     7
  6
Continuous
290
     1
370
    -3
390
F
  0
LAYER
  5
41
330
2
100
AcDbSymbolTableRecord
100
AcDbLayerTableRecord
  2
25
 70
     0
 62
     7
  6
Continuous
290
     1
370
    -3
390
F
  0
LAYER
  5
42
330
2
100
AcDbSymbolTableRecord
100
AcDbLayerTableRecord
  2
26
 70
     0
 62
     7
  6
Continuous
290
     1
370
    -3
390
F
  0
LAYER
  5
43
330
2
100
AcDbSymbolTableRecord
100
AcDbLayerTableRecord
  2
27
 70
     0
 62
     7
  6
Continuous
290
     1
370
    -3
390
F
  0
LAYER
  5
44
330
2
100
AcDbSymbolTableRecord
100
AcDbLayerTableRecord
  2
28
 70
     0
 62
     7
  6
Continuous
290
     1
370
    -3
390
F
  0
LAYER
  5
45
330
2
100
AcDbSymbolTableRecord
100
AcDbLayerTableRecord
  2
29
 70
     0
 62
     7
  6
Continuous
290
     1
370
    -3
390
F
  0
LAYER
  5
46
330
2
100
AcDbSymbolTableRecord
100
AcDbLayerTableRecord
  2
30
 70
     0
 62
     7
  6
Continuous
290
     1
370
    -3
390
F
  0
LAYER
  5
47
330
2
100
AcDbSymbolTableRecord
100
AcDbLayerTableRecord
  2
31
 70
     0
 62
     7
  6
Continuous
290
     1
370
    -3
390
F
  0
LAYER
  5
48
330
2
100
AcDbSymbolTableRecord
100
AcDbLayerTableRecord
  2
32
 70
     0
 62
     7
  6
Continuous
290
     1
370
    -3
390
F
  0
LAYER
  5
49
330
2
100
AcDbSymbolTableRecord
100
AcDbLayerTableRecord
  2
33
 70
     0
 62
     7
  6
Continuous
290
     1
370
    -3
390
F
  0
LAYER
  5
4A
330
2
100
AcDbSymbolTableRecord
100
AcDbLayerTableRecord
  2
34
 70
     0
 62
     7
  6
Continuous
290
     1
370
    -3
390
F
  0
LAYER
  5
4B
330
2
100
AcDbSymbolTableRecord
100
AcDbLayerTableRecord
  2
35
 70
     0
 62
     7
  6
Continuous
290
     1
370
    -3
390
F
  0
LAYER
  5
4C
330
2
100
AcDbSymbolTableRecord
100
AcDbLayerTableRecord
  2
36
 70
     0
 62
     7
  6
Continuous
290
     1
370
    -3
390
F
  0
LAYER
  5
4D
330
2
100
AcDbSymbolTableRecord
100
AcDbLayerTableRecord
  2
37
 70
     0
 62
     7
  6
Continuous
290
     1
370
    -3
390
F
  0
LAYER
  5
4E
330
2
100
AcDbSymbolTableRecord
100
AcDbLayerTableRecord
  2
38
 70
     0
 62
     7
  6
Continuous
290
     1
370
    -3
390
F
  0
LAYER
  5
4F
330
2
100
AcDbSymbolTableRecord
100
AcDbLayerTableRecord
  2
39
 70
     0
 62
     7
  6
Continuous
290
     1
370
    -3
390
F
  0
LAYER
  5
50
330
2
100
AcDbSymbolTableRecord
100
AcDbLayerTableRecord
  2
40
 70
     0
 62
     7
  6
Continuous
290
     1
370
    -3
390
F
  0
LAYER
  5
51
330
2
100
AcDbSymbolTableRecord
100
AcDbLayerTableRecord
  2
41
 70
     0
 62
     7
  6
Continuous
290
     1
370
    -3
390
F
  0
LAYER
  5
52
330
2
100
AcDbSymbolTableRecord
100
AcDbLayerTableRecord
  2
42
 70
     0
 62
     7
  6
Continuous
290
     1
370
    -3
390
F
  0
LAYER
  5
53
330
2
100
AcDbSymbolTableRecord
100
AcDbLayerTableRecord
  2
43
 70
     0
 62
     7
  6
Continuous
290
     1
370
    -3
390
F
  0
LAYER
  5
54
330
2
100
AcDbSymbolTableRecord
100
AcDbLayerTableRecord
  2
44
 70
     0
 62
     7
  6
Continuous
290
     1
370
    -3
390
F
  0
LAYER
  5
55
330
2
100
AcDbSymbolTableRecord
100
AcDbLayerTableRecord
  2
45
 70
     0
 62
     7
  6
Continuous
290
     1
370
    -3
390
F
  0
LAYER
  5
56
330
2
100
AcDbSymbolTableRecord
100
AcDbLayerTableRecord
  2
46
 70
     0
 62
     7
  6
Continuous
290
     1
370
    -3
390
F
  0
LAYER
  5
57
330
2
100
AcDbSymbolTableRecord
100
AcDbLayerTableRecord
  2
47
 70
     0
 62
     7
  6
Continuous
290
     1
370
    -3
390
F
  0
LAYER
  5
58
330
2
100
AcDbSymbolTableRecord
100
AcDbLayerTableRecord
  2
48
 70
     0
 62
     7
  6
Continuous
290
     1
370
    -3
390
F
  0
LAYER
  5
59
330
2
100
AcDbSymbolTableRecord
100
AcDbLayerTableRecord
  2
49
 70
     0
 62
     7
  6
Continuous
290
     1
370
    -3
390
F
  0
LAYER
  5
5A
330
2
100
AcDbSymbolTableRecord
100
AcDbLayerTableRecord
  2
50
 70
     0
 62
     7
  6
Continuous
290
     1
370
    -3
390
F
  0
LAYER
  5
5B
330
2
100
AcDbSymbolTableRecord
100
AcDbLayerTableRecord
  2
51
 70
     0
 62
     7
  6
Continuous
290
     1
370
    -3
390
F
  0
LAYER
  5
5C
330
2
100
AcDbSymbolTableRecord
100
AcDbLayerTableRecord
  2
52
 70
     0
 62
     7
  6
Continuous
290
     1
370
    -3
390
F
  0
LAYER
  5
5D
330
2
100
AcDbSymbolTableRecord
100
AcDbLayerTableRecord
  2
53
 70
     0
 62
     7
  6
Continuous
290
     1
370
    -3
390
F
  0
LAYER
  5
5E
330
2
100
AcDbSymbolTableRecord
100
AcDbLayerTableRecord
  2
54
 70
     0
 62
     7
  6
Continuous
290
     1
370
    -3
390
F
  0
LAYER
  5
5F
330
2
100
AcDbSymbolTableRecord
100
AcDbLayerTableRecord
  2
55
 70
     0
 62
     7
  6
Continuous
290
     1
370
    -3
390
F
  0
LAYER
  5
60
330
2
100
AcDbSymbolTableRecord
100
AcDbLayerTableRecord
  2
56
 70
     0
 62
     7
  6
Continuous
290
     1
370
    -3
390
F
  0
LAYER
  5
61
330
2
100
AcDbSymbolTableRecord
100
AcDbLayerTableRecord
  2
57
 70
     0
 62
     7
  6
Continuous
290
     1
370
    -3
390
F
  0
LAYER
  5
62
330
2
100
AcDbSymbolTableRecord
100
AcDbLayerTableRecord
  2
58
 70
     0
 62
     7
  6
Continuous
290
     1
370
    -3
390
F
  0
LAYER
  5
63
330
2
100
AcDbSymbolTableRecord
100
AcDbLayerTableRecord
  2
59
 70
     0
 62
     7
  6
Continuous
290
     1
370
    -3
390
F
  0
LAYER
  5
64
330
2
100
AcDbSymbolTableRecord
100
AcDbLayerTableRecord
  2
60
 70
     0
 62
     7
  6
Continuous
290
     1
370
    -3
390
F
  0
LAYER
  5
65
330
2
100
AcDbSymbolTableRecord
100
AcDbLayerTableRecord
  2
61
 70
     0
 62
     7
  6
Continuous
290
     1
370
    -3
390
F
  0
LAYER
  5
66
330
2
100
AcDbSymbolTableRecord
100
AcDbLayerTableRecord
  2
62
 70
     0
 62
     7
  6
Continuous
290
     1
370
    -3
390
F
  0
LAYER
  5
67
330
2
100
AcDbSymbolTableRecord
100
AcDbLayerTableRecord
  2
63
 70
     0
 62
     7
  6
Continuous
290
     1
370
    -3
390
F
  0
LAYER
  5
68
330
2
100
AcDbSymbolTableRecord
100
AcDbLayerTableRecord
  2
64
 70
     0
 62
     7
  6
Continuous
290
     1
370
    -3
390
F
  0
LAYER
  5
69
330
2
100
AcDbSymbolTableRecord
100
AcDbLayerTableRecord
  2
65
 70
     0
 62
     7
  6
Continuous
290
     1
370
    -3
390
F
  0
LAYER
  5
6A
330
2
100
AcDbSymbolTableRecord
100
AcDbLayerTableRecord
  2
66
 70
     0
 62
     7
  6
Continuous
290
     1
370
    -3
390
F
  0
LAYER
  5
6B
330
2
100
AcDbSymbolTableRecord
100
AcDbLayerTableRecord
  2
67
 70
     0
 62
     7
  6
Continuous
290
     1
370
    -3
390
F
  0
LAYER
  5
6C
330
2
100
AcDbSymbolTableRecord
100
AcDbLayerTableRecord
  2
68
 70
     0
 62
     7
  6
Continuous
290
     1
370
    -3
390
F
  0
LAYER
  5
6D
330
2
100
AcDbSymbolTableRecord
100
AcDbLayerTableRecord
  2
69
 70
     0
 62
     7
  6
Continuous
290
     1
370
    -3
390
F
  0
LAYER
  5
6E
330
2
100
AcDbSymbolTableRecord
100
AcDbLayerTableRecord
  2
70
 70
     0
 62
     7
  6
Continuous
290
     1
370
    -3
390
F
  0
LAYER
  5
6F
330
2
100
AcDbSymbolTableRecord
100
AcDbLayerTableRecord
  2
71
 70
     0
 62
     7
  6
Continuous
290
     1
370
    -3
390
F
  0
LAYER
  5
70
330
2
100
AcDbSymbolTableRecord
100
AcDbLayerTableRecord
  2
72
 70
     0
 62
     7
  6
Continuous
290
     1
370
    -3
390
F
  0
LAYER
  5
71
330
2
100
AcDbSymbolTableRecord
100
AcDbLayerTableRecord
  2
73
 70
     0
 62
     7
  6
Continuous
290
     1
370
    -3
390
F
  0
LAYER
  5
72
330
2
100
AcDbSymbolTableRecord
100
AcDbLayerTableRecord
  2
74
 70
     0
 62
     7
  6
Continuous
290
     1
370
    -3
390
F
  0
LAYER
  5
73
330
2
100
AcDbSymbolTableRecord
100
AcDbLayerTableRecord
  2
75
 70
     0
 62
     7
  6
Continuous
290
     1
370
    -3
390
F
  0
LAYER
  5
74
330
2
100
AcDbSymbolTableRecord
100
AcDbLayerTableRecord
  2
76
 70
     0
 62
     7
  6
Continuous
290
     1
370
    -3
390
F
  0
LAYER
  5
75
330
2
100
AcDbSymbolTableRecord
100
AcDbLayerTableRecord
  2
77
 70
     0
 62
     7
  6
Continuous
290
     1
370
    -3
390
F
  0
LAYER
  5
76
330
2
100
AcDbSymbolTableRecord
100
AcDbLayerTableRecord
  2
78
 70
     0
 62
     7
  6
Continuous
290
     1
370
    -3
390
F
  0
LAYER
  5
77
330
2
100
AcDbSymbolTableRecord
100
AcDbLayerTableRecord
  2
79
 70
     0
 62
     7
  6
Continuous
290
     1
370
    -3
390
F
  0
LAYER
  5
78
330
2
100
AcDbSymbolTableRecord
100
AcDbLayerTableRecord
  2
80
 70
     0
 62
     7
  6
Continuous
290
     1
370
    -3
390
F
  0
LAYER
  5
79
330
2
100
AcDbSymbolTableRecord
100
AcDbLayerTableRecord
  2
81
 70
     0
 62
     7
  6
Continuous
290
     1
370
    -3
390
F
  0
LAYER
  5
7A
330
2
100
AcDbSymbolTableRecord
100
AcDbLayerTableRecord
  2
82
 70
     0
 62
     7
  6
Continuous
290
     1
370
    -3
390
F
  0
LAYER
  5
7B
330
2
100
AcDbSymbolTableRecord
100
AcDbLayerTableRecord
  2
83
 70
     0
 62
     7
  6
Continuous
290
     1
370
    -3
390
F
  0
LAYER
  5
7C
330
2
100
AcDbSymbolTableRecord
100
AcDbLayerTableRecord
  2
84
 70
     0
 62
     7
  6
Continuous
290
     1
370
    -3
390
F
  0
LAYER
  5
7D
330
2
100
AcDbSymbolTableRecord
100
AcDbLayerTableRecord
  2
85
 70
     0
 62
     7
  6
Continuous
290
     1
370
    -3
390
F
  0
LAYER
  5
7E
330
2
100
AcDbSymbolTableRecord
100
AcDbLayerTableRecord
  2
86
 70
     0
 62
     7
  6
Continuous
290
     1
370
    -3
390
F
  0
LAYER
  5
7F
330
2
100
AcDbSymbolTableRecord
100
AcDbLayerTableRecord
  2
87
 70
     0
 62
     7
  6
Continuous
290
     1
370
    -3
390
F
  0
LAYER
  5
80
330
2
100
AcDbSymbolTableRecord
100
AcDbLayerTableRecord
  2
88
 70
     0
 62
     7
  6
Continuous
290
     1
370
    -3
390
F
  0
LAYER
  5
81
330
2
100
AcDbSymbolTableRecord
100
AcDbLayerTableRecord
  2
89
 70
     0
 62
     7
  6
Continuous
290
     1
370
    -3
390
F
  0
LAYER
  5
82
330
2
100
AcDbSymbolTableRecord
100
AcDbLayerTableRecord
  2
90
 70
     0
 62
     7
  6
Continuous
290
     1
370
    -3
390
F
  0
LAYER
  5
83
330
2
100
AcDbSymbolTableRecord
100
AcDbLayerTableRecord
  2
91
 70
     0
 62
     7
  6
Continuous
290
     1
370
    -3
390
F
  0
LAYER
  5
84
330
2
100
AcDbSymbolTableRecord
100
AcDbLayerTableRecord
  2
92
 70
     0
 62
     7
  6
Continuous
290
     1
370
    -3
390
F
  0
LAYER
  5
85
330
2
100
AcDbSymbolTableRecord
100
AcDbLayerTableRecord
  2
93
 70
     0
 62
     7
  6
Continuous
290
     1
370
    -3
390
F
  0
LAYER
  5
86
330
2
100
AcDbSymbolTableRecord
100
AcDbLayerTableRecord
  2
94
 70
     0
 62
     7
  6
Continuous
290
     1
370
    -3
390
F
  0
LAYER
  5
87
330
2
100
AcDbSymbolTableRecord
100
AcDbLayerTableRecord
  2
95
 70
     0
 62
     7
  6
Continuous
290
     1
370
    -3
390
F
  0
LAYER
  5
88
330
2
100
AcDbSymbolTableRecord
100
AcDbLayerTableRecord
  2
96
 70
     0
 62
     7
  6
Continuous
290
     1
370
    -3
390
F
  0
LAYER
  5
89
330
2
100
AcDbSymbolTableRecord
100
AcDbLayerTableRecord
  2
97
 70
     0
 62
     7
  6
Continuous
290
     1
370
    -3
390
F
  0
LAYER
  5
8A
330
2
100
AcDbSymbolTableRecord
100
AcDbLayerTableRecord
  2
98
 70
     0
 62
     7
  6
Continuous
290
     1
370
    -3
390
F
  0
LAYER
  5
8B
330
2
100
AcDbSymbolTableRecord
100
AcDbLayerTableRecord
  2
99
 70
     0
 62
     7
  6
Continuous
290
     1
370
    -3
390
F
  0
LAYER
  5
8C
330
2
100
AcDbSymbolTableRecord
100
AcDbLayerTableRecord
  2
100
 70
     0
 62
     7
  6
Continuous
290
     1
370
    -3
390
F
  0
LAYER
  5
8D
330
2
100
AcDbSymbolTableRecord
100
AcDbLayerTableRecord
  2
101
 70
     0
 62
     7
  6
Continuous
290
     1
370
    -3
390
F
  0
LAYER
  5
8E
330
2
100
AcDbSymbolTableRecord
100
AcDbLayerTableRecord
  2
102
 70
     0
 62
     7
  6
Continuous
290
     1
370
    -3
390
F
  0
LAYER
  5
8F
330
2
100
AcDbSymbolTableRecord
100
AcDbLayerTableRecord
  2
103
 70
     0
 62
     7
  6
Continuous
290
     1
370
    -3
390
F
  0
LAYER
  5
90
330
2
100
AcDbSymbolTableRecord
100
AcDbLayerTableRecord
  2
104
 70
     0
 62
     7
  6
Continuous
290
     1
370
    -3
390
F
  0
LAYER
  5
91
330
2
100
AcDbSymbolTableRecord
100
AcDbLayerTableRecord
  2
105
 70
     0
 62
     7
  6
Continuous
290
     1
370
    -3
390
F
  0
LAYER
  5
92
330
2
100
AcDbSymbolTableRecord
100
AcDbLayerTableRecord
  2
106
 70
     0
 62
     7
  6
Continuous
290
     1
370
    -3
390
F
  0
LAYER
  5
93
330
2
100
AcDbSymbolTableRecord
100
AcDbLayerTableRecord
  2
107
 70
     0
 62
     7
  6
Continuous
290
     1
370
    -3
390
F
  0
LAYER
  5
94
330
2
100
AcDbSymbolTableRecord
100
AcDbLayerTableRecord
  2
108
 70
     0
 62
     7
  6
Continuous
290
     1
370
    -3
390
F
  0
LAYER
  5
95
330
2
100
AcDbSymbolTableRecord
100
AcDbLayerTableRecord
  2
109
 70
     0
 62
     7
  6
Continuous
290
     1
370
    -3
390
F
  0
LAYER
  5
96
330
2
100
AcDbSymbolTableRecord
100
AcDbLayerTableRecord
  2
110
 70
     0
 62
     7
  6
Continuous
290
     1
370
    -3
390
F
  0
LAYER
  5
97
330
2
100
AcDbSymbolTableRecord
100
AcDbLayerTableRecord
  2
111
 70
     0
 62
     7
  6
Continuous
290
     1
370
    -3
390
F
  0
LAYER
  5
98
330
2
100
AcDbSymbolTableRecord
100
AcDbLayerTableRecord
  2
112
 70
     0
 62
     7
  6
Continuous
290
     1
370
    -3
390
F
  0
LAYER
  5
99
330
2
100
AcDbSymbolTableRecord
100
AcDbLayerTableRecord
  2
113
 70
     0
 62
     7
  6
Continuous
290
     1
370
    -3
390
F
  0
LAYER
  5
9A
330
2
100
AcDbSymbolTableRecord
100
AcDbLayerTableRecord
  2
114
 70
     0
 62
     7
  6
Continuous
290
     1
370
    -3
390
F
  0
LAYER
  5
9B
330
2
100
AcDbSymbolTableRecord
100
AcDbLayerTableRecord
  2
115
 70
     0
 62
     7
  6
Continuous
290
     1
370
    -3
390
F
  0
LAYER
  5
9C
330
2
100
AcDbSymbolTableRecord
100
AcDbLayerTableRecord
  2
116
 70
     0
 62
     7
  6
Continuous
290
     1
370
    -3
390
F
  0
LAYER
  5
9D
330
2
100
AcDbSymbolTableRecord
100
AcDbLayerTableRecord
  2
117
 70
     0
 62
     7
  6
Continuous
290
     1
370
    -3
390
F
  0
LAYER
  5
9E
330
2
100
AcDbSymbolTableRecord
100
AcDbLayerTableRecord
  2
118
 70
     0
 62
     7
  6
Continuous
290
     1
370
    -3
390
F
  0
LAYER
  5
9F
330
2
100
AcDbSymbolTableRecord
100
AcDbLayerTableRecord
  2
119
 70
     0
 62
     7
  6
Continuous
290
     1
370
    -3
390
F
  0
LAYER
  5
A0
330
2
100
AcDbSymbolTableRecord
100
AcDbLayerTableRecord
  2
120
 70
     0
 62
     7
  6
Continuous
290
     1
370
    -3
390
F
  0
LAYER
  5
A1
330
2
100
AcDbSymbolTableRecord
100
AcDbLayerTableRecord
  2
121
 70
     0
 62
     7
  6
Continuous
290
     1
370
    -3
390
F
  0
LAYER
  5
A2
330
2
100
AcDbSymbolTableRecord
100
AcDbLayerTableRecord
  2
122
 70
     0
 62
     7
  6
Continuous
290
     1
370
    -3
390
F
  0
LAYER
  5
A3
330
2
100
AcDbSymbolTableRecord
100
AcDbLayerTableRecord
  2
123
 70
     0
 62
     7
  6
Continuous
290
     1
370
    -3
390
F
  0
LAYER
  5
A4
330
2
100
AcDbSymbolTableRecord
100
AcDbLayerTableRecord
  2
124
 70
     0
 62
     7
  6
Continuous
290
     1
370
    -3
390
F
  0
LAYER
  5
A5
330
2
100
AcDbSymbolTableRecord
100
AcDbLayerTableRecord
  2
125
 70
     0
 62
     7
  6
Continuous
290
     1
370
    -3
390
F
  0
LAYER
  5
A6
330
2
100
AcDbSymbolTableRecord
100
AcDbLayerTableRecord
  2
126
 70
     0
 62
     7
  6
Continuous
290
     1
370
    -3
390
F
  0
LAYER
  5
A7
330
2
100
AcDbSymbolTableRecord
100
AcDbLayerTableRecord
  2
127
 70
     0
 62
     7
  6
Continuous
290
     1
370
    -3
390
F
  0
LAYER
  5
A8
330
2
100
AcDbSymbolTableRecord
100
AcDbLayerTableRecord
  2
128
 70
     0
 62
     7
  6
Continuous
290
     1
370
    -3
390
F
  0
ENDTAB
  0
TABLE
  2
STYLE
  5
3
330
0
100
AcDbSymbolTable
 70
    15
  0
STYLE
  5
11
330
3
100
AcDbSymbolTableRecord
100
AcDbTextStyleTableRecord
  2
Standard
 70
     0
 40
0.0
 41
1.0
 50
0.0
 71
     0
 42
2.5
  3
txt
  4
extfont.shx
  0
STYLE
  5
117
330
3
100
AcDbSymbolTableRecord
100
AcDbTextStyleTableRecord
  2
KANJI0
 70
     0
 40
10.0
 41
0.85
 50
0.0
 71
     0
 42
10.0
  3
txt.shx
  4
extfont.shx
  0
STYLE
  5
119
330
3
100
AcDbSymbolTableRecord
100
AcDbTextStyleTableRecord
  2
KANJI1
 70
     0
 40
6.0
 41
0.85
 50
0.0
 71
     0
 42
6.0
  3
txt.shx
  4
extfont.shx
  0
STYLE
  5
13C
330
3
100
AcDbSymbolTableRecord
100
AcDbTextStyleTableRecord
  2
KANJI2
 70
     0
 40
9.0
 41
0.9
 50
0.0
 71
     0
 42
9.0
  3
txt.shx
  4
extfont.shx
  0
STYLE
  5
154
330
3
100
AcDbSymbolTableRecord
100
AcDbTextStyleTableRecord
  2
KANJI3
 70
     0
 40
17.5
 41
0.5
 50
0.0
 71
     0
 42
17.5
  3
txt.shx
  4
extfont.shx
  0
STYLE
  5
15F
330
3
100
AcDbSymbolTableRecord
100
AcDbTextStyleTableRecord
  2
KANJI4
 70
     0
 40
10.0
 41
0.425
 50
0.0
 71
     0
 42
10.0
  3
txt.shx
  4
extfont.shx
  0
STYLE
  5
387
330
3
100
AcDbSymbolTableRecord
100
AcDbTextStyleTableRecord
  2
KANJI5
 70
     0
 40
4.5
 41
0.866666667
 50
0.0
 71
     0
 42
4.5
  3
txt.shx
  4
extfont.shx
  0
STYLE
  5
414
330
3
100
AcDbSymbolTableRecord
100
AcDbTextStyleTableRecord
  2
KANJI6
 70
     0
 40
3.75
 41
0.92
 50
0.0
 71
     0
 42
3.75
  3
txt.shx
  4
extfont.shx
  0
STYLE
  5
5DD
330
3
100
AcDbSymbolTableRecord
100
AcDbTextStyleTableRecord
  2
KANJI7
 70
     0
 40
6.0
 41
0.833333333
 50
0.0
 71
     0
 42
6.0
  3
txt.shx
  4
extfont.shx
  0
STYLE
  5
5DF
330
3
100
AcDbSymbolTableRecord
100
AcDbTextStyleTableRecord
  2
KANJI8
 70
     0
 40
5.0
 41
0.35
 50
0.0
 71
     0
 42
5.0
  3
txt.shx
  4
extfont.shx
  0
STYLE
  5
5FB
330
3
100
AcDbSymbolTableRecord
100
AcDbTextStyleTableRecord
  2
KANJI9
 70
     0
 40
3.5
 41
0.357142857
 50
0.0
 71
     0
 42
3.5
  3
txt.shx
  4
extfont.shx
  0
STYLE
  5
61A
330
3
100
AcDbSymbolTableRecord
100
AcDbTextStyleTableRecord
  2
KANJI10
 70
     0
 40
9.0
 41
0.9
 50
15.0
 71
     0
 42
9.0
  3
txt.shx
  4
extfont.shx
  0
STYLE
  5
625
330
3
100
AcDbSymbolTableRecord
100
AcDbTextStyleTableRecord
  2
KANJI11
 70
     0
 40
9.0
 41
0.9
 50
10.0
 71
     0
 42
9.0
  3
txt.shx
  4
extfont.shx
  0
STYLE
  5
660
330
3
100
AcDbSymbolTableRecord
100
AcDbTextStyleTableRecord
  2
KANJI12
 70
     0
 40
12.0
 41
0.933333333
 50
0.0
 71
     0
 42
12.0
  3
txt.shx
  4
extfont.shx
  0
STYLE
  5
664
330
3
100
AcDbSymbolTableRecord
100
AcDbTextStyleTableRecord
  2
KANJI13
 70
     0
 40
12.0
 41
0.9
 50
0.0
 71
     0
 42
12.0
  3
txt.shx
  4
extfont.shx
  0
ENDTAB
  0
TABLE
  2
VIEW
  5
6
330
0
100
AcDbSymbolTable
 70
     0
  0
ENDTAB
  0
TABLE
  2
UCS
  5
7
330
0
100
AcDbSymbolTable
 70
     0
  0
ENDTAB
  0
TABLE
  2
APPID
  5
9
330
0
100
AcDbSymbolTable
 70
     1
  0
APPID
  5
12
330
9
100
AcDbSymbolTableRecord
100
AcDbRegAppTableRecord
  2
ACAD
 70
     0
  0
ENDTAB
  0
TABLE
  2
DIMSTYLE
  5
A
330
0
100
AcDbSymbolTable
 70
     1
100
AcDbDimStyleTable
 71
     0
  0
DIMSTYLE
105
27
330
A
100
AcDbSymbolTableRecord
100
AcDbDimStyleTableRecord
  2
ISO-25
 70
     0
  3

  4

 40
1.0
 41
2.5
 42
0.625
 43
3.75
 44
1.25
 45
0.0
 46
0.0
 47
0.0
 48
0.0
 71
     0
 72
     0
 73
     0
 74
     0
 75
     0
 76
     0
 77
     1
 78
     8
 79
     0
140
2.5
141
2.5
142
0.0
143
0.039370079
144
1.0
145
0.0
146
1.0
147
0.625
148
0.0
170
     0
171
     3
172
     1
173
     0
174
     0
175
     0
176
     0
177
     0
178
     0
179
     0
270
     2
271
     2
272
     2
273
     2
274
     3
275
     0
276
     0
277
     2
278
    46
279
     0
280
     0
281
     0
282
     0
283
     1
284
     8
285
     0
286
     0
288
     0
289
     0
340
11
341
0
342
0
343
0
344
0
371
    -2
372
    -2
  0
ENDTAB
  0
TABLE
  2
BLOCK_RECORD
  5
1
330
0
100
AcDbSymbolTable
 70
     3
  0
BLOCK_RECORD
  5
1F
330
1
100
AcDbSymbolTableRecord
100
AcDbBlockTableRecord
  2
*Model_Space
340
22
  0
BLOCK_RECORD
  5
1B
330
1
100
AcDbSymbolTableRecord
100
AcDbBlockTableRecord
  2
*Paper_Space
340
1E
  0
BLOCK_RECORD
  5
23
330
1
100
AcDbSymbolTableRecord
100
AcDbBlockTableRecord
  2
*Paper_Space0
340
26
  0
ENDTAB
  0
ENDSEC
  0
SECTION
  2
BLOCKS
  0
BLOCK
  5
1C
330
1B
100
AcDbEntity
 67
     1
  8
0
100
AcDbBlockBegin
  2
*Paper_Space
 70
     0
 10
0.0
 20
0.0
 30
0.0
  3
*Paper_Space
  1

  0
ENDBLK
  5
1D
330
1B
100
AcDbEntity
  8
0
100
AcDbBlockEnd
  0
BLOCK
  5
20
330
1F
100
AcDbEntity
  8
0
100
AcDbBlockBegin
  2
*Model_Space
 70
     0
 10
0.0
 20
0.0
 30
0.0
  3
*Model_Space
  1

  0
ENDBLK
  5
21
330
1F
100
AcDbEntity
  8
0
100
AcDbBlockEnd
  0
BLOCK
  5
24
330
23
100
AcDbEntity
 67
     1
  8
0
100
AcDbBlockBegin
  2
*Paper_Space0
 70
     0
 10
0.0
 20
0.0
 30
0.0
  3
*Paper_Space0
  1

  0
ENDBLK
  5
25
330
23
100
AcDbEntity
  8
0
100
AcDbBlockEnd
  0
ENDSEC
  0
SECTION
  2
ENTITIES
  0
LINE
  5
A9
330
1F
100
AcDbEntity
  8
2
  6
Continuous
 62
     2
100
AcDbLine
 10
249.05
 20
273.64
 30
0.0
 11
249.05
 21
274.64
 31
0.0
  0
LINE
  5
AA
330
1F
100
AcDbEntity
  8
2
  6
Continuous
 62
     2
100
AcDbLine
 10
679.05
 20
273.64
 30
0.0
 11
679.05
 21
274.64
 31
0.0
  0
LINE
  5
AB
330
1F
100
AcDbEntity
  8
2
  6
Continuous
 62
     2
100
AcDbLine
 10
680.05
 20
273.64
 30
0.0
 11
680.05
 21
274.64
 31
0.0
  0
LINE
  5
AC
330
1F
100
AcDbEntity
  8
2
  6
Continuous
 62
     2
100
AcDbLine
 10
248.05
 20
273.64
 30
0.0
 11
248.05
 21
274.64
 31
0.0
  0
LINE
  5
AD
330
1F
100
AcDbEntity
  8
2
  6
Continuous
 62
     2
100
AcDbLine
 10
248.05
 20
274.64
 30
0.0
 11
680.05
 21
274.64
 31
0.0
  0
LINE
  5
AE
330
1F
100
AcDbEntity
  8
2
  6
Continuous
 62
     2
100
AcDbLine
 10
248.05
 20
273.64
 30
0.0
 11
680.05
 21
273.64
 31
0.0
  0
LINE
  5
AF
330
1F
100
AcDbEntity
  8
2
  6
Continuous
 62
     2
100
AcDbLine
 10
249.25
 20
613.64
 30
0.0
 11
678.85
 21
613.64
 31
0.0
  0
LINE
  5
B0
330
1F
100
AcDbEntity
  8
2
  6
Continuous
 62
     2
100
AcDbLine
 10
248.05
 20
613.34
 30
0.0
 11
680.05
 21
613.34
 31
0.0
  0
LINE
  5
B1
330
1F
100
AcDbEntity
  8
2
  6
Continuous
 62
     2
100
AcDbLine
 10
703.05
 20
273.64
 30
0.0
 11
703.05
 21
275.64
 31
0.0
  0
LINE
  5
B2
330
1F
100
AcDbEntity
  8
2
  6
Continuous
 62
     2
100
AcDbLine
 10
705.05
 20
273.64
 30
0.0
 11
705.05
 21
275.64
 31
0.0
  0
LINE
  5
B3
330
1F
100
AcDbEntity
  8
2
  6
Continuous
 62
     2
100
AcDbLine
 10
682.05
 20
275.64
 30
0.0
 11
705.05
 21
275.64
 31
0.0
  0
LINE
  5
B4
330
1F
100
AcDbEntity
  8
2
  6
Continuous
 62
     2
100
AcDbLine
 10
680.05
 20
275.64
 30
0.0
 11
680.05
 21
343.64
 31
0.0
  0
LINE
  5
B5
330
1F
100
AcDbEntity
  8
2
  6
Continuous
 62
     2
100
AcDbLine
 10
682.05
 20
273.64
 30
0.0
 11
705.05
 21
273.64
 31
0.0
  0
ARC
  5
B6
330
1F
100
AcDbEntity
  8
2
  6
Continuous
 62
     2
100
AcDbCircle
 10
682.05
 20
275.64
 30
0.0
 40
2.0
100
AcDbArc
 50
180.0
 51
270.0
  0
LINE
  5
B7
330
1F
100
AcDbEntity
  8
2
  6
Continuous
 62
     2
100
AcDbLine
 10
680.05
 20
343.64
 30
0.0
 11
682.05
 21
343.64
 31
0.0
  0
LINE
  5
B8
330
1F
100
AcDbEntity
  8
2
  6
Continuous
 62
     2
100
AcDbLine
 10
682.05
 20
275.64
 30
0.0
 11
682.05
 21
343.64
 31
0.0
  0
LINE
  5
B9
330
1F
100
AcDbEntity
  8
2
  6
Continuous
 62
     2
100
AcDbLine
 10
680.05
 20
341.64
 30
0.0
 11
682.05
 21
341.64
 31
0.0
  0
LINE
  5
BA
330
1F
100
AcDbEntity
  8
2
  6
Continuous
 62
     2
100
AcDbLine
 10
225.05
 20
273.64
 30
0.0
 11
225.05
 21
275.64
 31
0.0
  0
LINE
  5
BB
330
1F
100
AcDbEntity
  8
2
  6
Continuous
 62
     2
100
AcDbLine
 10
223.05
 20
273.64
 30
0.0
 11
223.05
 21
275.64
 31
0.0
  0
LINE
  5
BC
330
1F
100
AcDbEntity
  8
2
  6
Continuous
 62
     2
100
AcDbLine
 10
246.05
 20
275.64
 30
0.0
 11
223.05
 21
275.64
 31
0.0
  0
LINE
  5
BD
330
1F
100
AcDbEntity
  8
2
  6
Continuous
 62
     2
100
AcDbLine
 10
248.05
 20
275.64
 30
0.0
 11
248.05
 21
343.64
 31
0.0
  0
LINE
  5
BE
330
1F
100
AcDbEntity
  8
2
  6
Continuous
 62
     2
100
AcDbLine
 10
246.05
 20
273.64
 30
0.0
 11
223.05
 21
273.64
 31
0.0
  0
ARC
  5
BF
330
1F
100
AcDbEntity
  8
2
  6
Continuous
 62
     2
100
AcDbCircle
 10
246.05
 20
275.64
 30
0.0
 40
2.0
100
AcDbArc
 50
270.0
 51
0.0
  0
LINE
  5
C0
330
1F
100
AcDbEntity
  8
2
  6
Continuous
 62
     2
100
AcDbLine
 10
248.05
 20
343.64
 30
0.0
 11
246.05
 21
343.64
 31
0.0
  0
LINE
  5
C1
330
1F
100
AcDbEntity
  8
2
  6
Continuous
 62
     2
100
AcDbLine
 10
246.05
 20
275.64
 30
0.0
 11
246.05
 21
343.64
 31
0.0
  0
LINE
  5
C2
330
1F
100
AcDbEntity
  8
2
  6
Continuous
 62
     2
100
AcDbLine
 10
248.05
 20
341.64
 30
0.0
 11
246.05
 21
341.64
 31
0.0
  0
LINE
  5
C3
330
1F
100
AcDbEntity
  8
2
  6
Continuous
 62
     2
100
AcDbLine
 10
249.25
 20
613.34
 30
0.0
 11
249.25
 21
613.64
 31
0.0
  0
LINE
  5
C4
330
1F
100
AcDbEntity
  8
2
  6
Continuous
 62
     2
100
AcDbLine
 10
250.25
 20
613.34
 30
0.0
 11
250.25
 21
613.64
 31
0.0
  0
LINE
  5
C5
330
1F
100
AcDbEntity
  8
2
  6
Continuous
 62
     2
100
AcDbLine
 10
254.05
 20
613.34
 30
0.0
 11
254.05
 21
613.64
 31
0.0
  0
LINE
  5
C6
330
1F
100
AcDbEntity
  8
2
  6
Continuous
 62
     2
100
AcDbLine
 10
384.05
 20
613.34
 30
0.0
 11
384.05
 21
613.64
 31
0.0
  0
LINE
  5
C7
330
1F
100
AcDbEntity
  8
2
  6
Continuous
 62
     2
100
AcDbLine
 10
469.85
 20
613.34
 30
0.0
 11
469.85
 21
613.64
 31
0.0
  0
LINE
  5
C8
330
1F
100
AcDbEntity
  8
2
  6
Continuous
 62
     2
100
AcDbLine
 10
483.85
 20
613.34
 30
0.0
 11
483.85
 21
613.64
 31
0.0
  0
LINE
  5
C9
330
1F
100
AcDbEntity
  8
2
  6
Continuous
 62
     2
100
AcDbLine
 10
654.05
 20
613.34
 30
0.0
 11
654.05
 21
613.64
 31
0.0
  0
LINE
  5
CA
330
1F
100
AcDbEntity
  8
2
  6
Continuous
 62
     2
100
AcDbLine
 10
674.05
 20
613.34
 30
0.0
 11
674.05
 21
613.64
 31
0.0
  0
LINE
  5
CB
330
1F
100
AcDbEntity
  8
2
  6
Continuous
 62
     2
100
AcDbLine
 10
677.85
 20
613.34
 30
0.0
 11
677.85
 21
613.64
 31
0.0
  0
LINE
  5
CC
330
1F
100
AcDbEntity
  8
2
  6
Continuous
 62
     2
100
AcDbLine
 10
678.85
 20
613.34
 30
0.0
 11
678.85
 21
613.64
 31
0.0
  0
LINE
  5
CD
330
1F
100
AcDbEntity
  8
2
  6
Continuous
 62
     2
100
AcDbLine
 10
248.05
 20
613.34
 30
0.0
 11
248.05
 21
274.64
 31
0.0
  0
LINE
  5
CE
330
1F
100
AcDbEntity
  8
2
  6
Continuous
 62
     2
100
AcDbLine
 10
680.05
 20
613.34
 30
0.0
 11
680.05
 21
274.64
 31
0.0
  0
LINE
  5
CF
330
1F
100
AcDbEntity
  8
2
  6
Continuous
 62
     2
100
AcDbLine
 10
427.75
 20
613.64
 30
0.0
 11
431.346395583
 21
613.64
 31
0.0
  0
LINE
  5
D0
330
1F
100
AcDbEntity
  8
2
  6
Continuous
 62
     2
100
AcDbLine
 10
465.95
 20
613.64
 30
0.0
 11
462.353604417
 21
613.64
 31
0.0
  0
LINE
  5
D1
330
1F
100
AcDbEntity
  8
2
  6
Continuous
 62
     2
100
AcDbLine
 10
487.75
 20
613.64
 30
0.0
 11
491.346395583
 21
613.64
 31
0.0
  0
LINE
  5
D2
330
1F
100
AcDbEntity
  8
2
  6
Continuous
 62
     2
100
AcDbLine
 10
525.95
 20
613.64
 30
0.0
 11
522.353604417
 21
613.64
 31
0.0
  0
LINE
  5
D3
330
1F
100
AcDbEntity
  8
2
  6
Continuous
 62
     2
100
AcDbLine
 10
547.75
 20
613.64
 30
0.0
 11
551.346395583
 21
613.64
 31
0.0
  0
LINE
  5
D4
330
1F
100
AcDbEntity
  8
2
  6
Continuous
 62
     2
100
AcDbLine
 10
585.95
 20
613.64
 30
0.0
 11
582.353604417
 21
613.64
 31
0.0
  0
LINE
  5
D5
330
1F
100
AcDbEntity
  8
2
  6
Continuous
 62
     2
100
AcDbLine
 10
678.85
 20
723.64
 30
0.0
 11
249.25
 21
723.64
 31
0.0
  0
LINE
  5
D6
330
1F
100
AcDbEntity
  8
2
  6
Continuous
 62
     2
100
AcDbLine
 10
350.45
 20
742.24
 30
0.0
 11
283.25
 21
742.24
 31
0.0
  0
LINE
  5
D7
330
1F
100
AcDbEntity
  8
2
  6
Continuous
 62
     2
100
AcDbLine
 10
283.25
 20
742.24
 30
0.0
 11
283.25
 21
760.24
 31
0.0
  0
LWPOLYLINE
  5
D9
330
1F
100
AcDbEntity
  8
2
  6
Continuous
 62
     2
100
AcDbPolyline
 90
     3
 70
   128
 43
0.0
 10
350.45
 20
742.24
 10
350.45
 20
760.24
 10
283.25
 20
760.24
  0
LINE
  5
DA
330
1F
100
AcDbEntity
  8
2
  6
Continuous
 62
     2
100
AcDbLine
 10
678.85
 20
723.64
 30
0.0
 11
678.85
 21
765.84
 31
0.0
  0
ARC
  5
DB
330
1F
100
AcDbEntity
  8
2
  6
Continuous
 62
     2
100
AcDbCircle
 10
678.35
 20
765.84
 30
0.0
 40
0.5
100
AcDbArc
 50
0.0
 51
90.0
  0
LINE
  5
DC
330
1F
100
AcDbEntity
  8
2
  6
Continuous
 62
     2
100
AcDbLine
 10
249.25
 20
723.64
 30
0.0
 11
249.25
 21
765.84
 31
0.0
  0
LINE
  5
DD
330
1F
100
AcDbEntity
  8
2
  6
Continuous
 62
     2
100
AcDbLine
 10
678.35
 20
766.34
 30
0.0
 11
249.75
 21
766.34
 31
0.0
  0
ARC
  5
DE
330
1F
100
AcDbEntity
  8
2
  6
Continuous
 62
     2
100
AcDbCircle
 10
249.75
 20
765.84
 30
0.0
 40
0.5
100
AcDbArc
 50
90.0
 51
180.0
  0
ARC
  5
DF
330
1F
100
AcDbEntity
  8
2
  6
Continuous
 62
     2
100
AcDbCircle
 10
249.25
 20
723.64
 30
0.0
 40
1.0
100
AcDbArc
 50
180.0
 51
270.0
  0
LINE
  5
E0
330
1F
100
AcDbEntity
  8
2
  6
Continuous
 62
     2
100
AcDbLine
 10
248.25
 20
723.64
 30
0.0
 11
248.25
 21
766.04
 31
0.0
  0
LWPOLYLINE
  5
E2
330
1F
100
AcDbEntity
  8
2
  6
Continuous
 62
     2
100
AcDbPolyline
 90
     3
 70
   128
 43
0.0
 10
249.25
 20
765.84
 10
249.25
 20
766.04
 10
248.25
 20
766.04
  0
LINE
  5
E3
330
1F
100
AcDbEntity
  8
2
  6
Continuous
 62
     2
100
AcDbLine
 10
249.25
 20
765.04
 30
0.0
 11
248.25
 21
765.04
 31
0.0
  0
LINE
  5
E4
330
1F
100
AcDbEntity
  8
2
  6
Continuous
 62
     2
100
AcDbLine
 10
678.85
 20
722.64
 30
0.0
 11
249.25
 21
722.64
 31
0.0
  0
ARC
  5
E5
330
1F
100
AcDbEntity
  8
2
  6
Continuous
 62
     2
100
AcDbCircle
 10
678.85
 20
723.64
 30
0.0
 40
1.0
100
AcDbArc
 50
270.0
 51
0.0
  0
LINE
  5
E6
330
1F
100
AcDbEntity
  8
2
  6
Continuous
 62
     2
100
AcDbLine
 10
679.85
 20
723.64
 30
0.0
 11
679.85
 21
766.04
 31
0.0
  0
LWPOLYLINE
  5
E8
330
1F
100
AcDbEntity
  8
2
  6
Continuous
 62
     2
100
AcDbPolyline
 90
     3
 70
   128
 43
0.0
 10
678.85
 20
765.84
 10
678.85
 20
766.04
 10
679.85
 20
766.04
  0
LINE
  5
E9
330
1F
100
AcDbEntity
  8
2
  6
Continuous
 62
     2
100
AcDbLine
 10
678.85
 20
765.04
 30
0.0
 11
679.85
 21
765.04
 31
0.0
  0
LINE
  5
EA
330
1F
100
AcDbEntity
  8
2
  6
Continuous
 62
     2
100
AcDbLine
 10
349.450017509
 20
742.74
 30
0.0
 11
349.4500005
 21
759.74
 31
0.0
  0
LINE
  5
EB
330
1F
100
AcDbEntity
  8
2
  6
Continuous
 62
     2
100
AcDbLine
 10
695.05
 20
756.84
 30
0.0
 11
698.05
 21
756.84
 31
0.0
  0
ARC
  5
EC
330
1F
100
AcDbEntity
  8
2
  6
Continuous
 62
     2
100
AcDbCircle
 10
695.05
 20
760.34
 30
0.0
 40
3.5
100
AcDbArc
 50
90.0
 51
270.0
  0
LWPOLYLINE
  5
EF
330
1F
100
AcDbEntity
  8
2
  6
Continuous
 62
     2
100
AcDbPolyline
 90
     3
 70
   128
 43
0.0
 10
695.05
 20
763.84
 42
0.0
 10
698.05
 20
763.84
 42
-1.0
 10
698.05
 20
756.84
 42
0.0
  0
LINE
  5
F0
330
1F
100
AcDbEntity
  8
2
  6
Continuous
 62
     2
100
AcDbLine
 10
695.05
 20
725.14
 30
0.0
 11
698.05
 21
725.14
 31
0.0
  0
ARC
  5
F1
330
1F
100
AcDbEntity
  8
2
  6
Continuous
 62
     2
100
AcDbCircle
 10
695.05
 20
728.64
 30
0.0
 40
3.5
100
AcDbArc
 50
90.0
 51
270.0
  0
LWPOLYLINE
  5
F4
330
1F
100
AcDbEntity
  8
2
  6
Continuous
 62
     2
100
AcDbPolyline
 90
     3
 70
   128
 43
0.0
 10
695.05
 20
732.14
 42
0.0
 10
698.05
 20
732.14
 42
-1.0
 10
698.05
 20
725.14
 42
0.0
  0
ARC
  5
F5
330
1F
100
AcDbEntity
  8
2
  6
Continuous
 62
     2
100
AcDbCircle
 10
702.05
 20
725.64
 30
0.0
 40
3.0
100
AcDbArc
 50
270.0
 51
0.0
  0
LINE
  5
F6
330
1F
100
AcDbEntity
  8
2
  6
Continuous
 62
     2
100
AcDbLine
 10
705.05
 20
725.64
 30
0.0
 11
705.05
 21
763.34
 31
0.0
  0
ARC
  5
F7
330
1F
100
AcDbEntity
  8
2
  6
Continuous
 62
     2
100
AcDbCircle
 10
702.05
 20
763.34
 30
0.0
 40
3.0
100
AcDbArc
 50
0.0
 51
90.0
  0
LINE
  5
F8
330
1F
100
AcDbEntity
  8
2
  6
Continuous
 62
     2
100
AcDbLine
 10
233.05
 20
756.84
 30
0.0
 11
230.05
 21
756.84
 31
0.0
  0
ARC
  5
F9
330
1F
100
AcDbEntity
  8
2
  6
Continuous
 62
     2
100
AcDbCircle
 10
233.05
 20
760.34
 30
0.0
 40
3.5
100
AcDbArc
 50
270.0
 51
90.0
  0
LWPOLYLINE
  5
FC
330
1F
100
AcDbEntity
  8
2
  6
Continuous
 62
     2
100
AcDbPolyline
 90
     3
 70
   128
 43
0.0
 10
233.05
 20
763.84
 42
0.0
 10
230.05
 20
763.84
 42
1.0
 10
230.05
 20
756.84
 42
0.0
  0
LINE
  5
FD
330
1F
100
AcDbEntity
  8
2
  6
Continuous
 62
     2
100
AcDbLine
 10
233.05
 20
725.14
 30
0.0
 11
230.05
 21
725.14
 31
0.0
  0
ARC
  5
FE
330
1F
100
AcDbEntity
  8
2
  6
Continuous
 62
     2
100
AcDbCircle
 10
233.05
 20
728.64
 30
0.0
 40
3.5
100
AcDbArc
 50
270.0
 51
90.0
  0
LWPOLYLINE
  5
101
330
1F
100
AcDbEntity
  8
2
  6
Continuous
 62
     2
100
AcDbPolyline
 90
     3
 70
   128
 43
0.0
 10
233.05
 20
732.14
 42
0.0
 10
230.05
 20
732.14
 42
1.0
 10
230.05
 20
725.14
 42
0.0
  0
ARC
  5
102
330
1F
100
AcDbEntity
  8
2
  6
Continuous
 62
     2
100
AcDbCircle
 10
226.05
 20
725.64
 30
0.0
 40
3.0
100
AcDbArc
 50
180.0
 51
270.0
  0
LINE
  5
103
330
1F
100
AcDbEntity
  8
2
  6
Continuous
 62
     2
100
AcDbLine
 10
223.05
 20
725.64
 30
0.0
 11
223.05
 21
763.34
 31
0.0
  0
ARC
  5
104
330
1F
100
AcDbEntity
  8
2
  6
Continuous
 62
     2
100
AcDbCircle
 10
226.05
 20
763.34
 30
0.0
 40
3.0
100
AcDbArc
 50
90.0
 51
180.0
  0
LINE
  5
105
330
1F
100
AcDbEntity
  8
2
  6
Continuous
 62
     2
100
AcDbLine
 10
681.85
 20
722.64
 30
0.0
 11
681.85
 21
766.34
 31
0.0
  0
LWPOLYLINE
  5
107
330
1F
100
AcDbEntity
  8
2
  6
Continuous
 62
     2
100
AcDbPolyline
 90
     3
 70
   128
 43
0.0
 10
679.85
 20
766.04
 10
679.85
 20
766.34
 10
702.05
 20
766.34
  0
LWPOLYLINE
  5
109
330
1F
100
AcDbEntity
  8
2
  6
Continuous
 62
     2
100
AcDbPolyline
 90
     3
 70
   128
 43
0.0
 10
679.85
 20
723.64
 10
679.85
 20
722.64
 10
702.05
 20
722.64
  0
LINE
  5
10A
330
1F
100
AcDbEntity
  8
2
  6
Continuous
 62
     2
100
AcDbLine
 10
248.25
 20
766.34
 30
0.0
 11
226.05
 21
766.34
 31
0.0
  0
LINE
  5
10B
330
1F
100
AcDbEntity
  8
2
  6
Continuous
 62
     2
100
AcDbLine
 10
248.25
 20
766.04
 30
0.0
 11
248.25
 21
766.34
 31
0.0
  0
LWPOLYLINE
  5
10D
330
1F
100
AcDbEntity
  8
2
  6
Continuous
 62
     2
100
AcDbPolyline
 90
     3
 70
   128
 43
0.0
 10
248.25
 20
723.64
 10
248.25
 20
722.64
 10
226.05
 20
722.64
  0
LINE
  5
10E
330
1F
100
AcDbEntity
  8
2
  6
Continuous
 62
     2
100
AcDbLine
 10
246.25
 20
722.64
 30
0.0
 11
246.25
 21
766.34
 31
0.0
  0
LINE
  5
10F
330
1F
100
AcDbEntity
  8
2
  6
Continuous
 62
     1
100
AcDbLine
 10
218.05
 20
273.64
 30
0.0
 11
178.39
 21
273.64
 31
0.0
  0
LINE
  5
110
330
1F
100
AcDbEntity
  8
2
  6
Continuous
 62
     1
100
AcDbLine
 10
188.39
 20
273.64
 30
0.0
 11
190.978190451
 21
283.299258263
 31
0.0
  0
LINE
  5
111
330
1F
100
AcDbEntity
  8
2
  6
Continuous
 62
     1
100
AcDbLine
 10
188.39
 20
273.64
 30
0.0
 11
185.801809549
 21
283.299258263
 31
0.0
  0
LWPOLYLINE
  5
113
330
1F
100
AcDbEntity
  8
2
  6
Continuous
 62
     1
100
AcDbPolyline
 90
     3
 70
   128
 43
0.0
 10
188.39
 20
273.64
 10
188.39
 20
613.64
 10
185.801809549
 20
603.980741737
  0
LINE
  5
114
330
1F
100
AcDbEntity
  8
2
  6
Continuous
 62
     1
100
AcDbLine
 10
188.39
 20
613.64
 30
0.0
 11
190.978190451
 21
603.980741737
 31
0.0
  0
LINE
  5
115
330
1F
100
AcDbEntity
  8
2
  6
Continuous
 62
     1
100
AcDbLine
 10
244.25
 20
613.64
 30
0.0
 11
178.39
 21
613.64
 31
0.0
  0
TEXT
  5
116
330
1F
100
AcDbEntity
  8
2
  6
Continuous
 62
     1
100
AcDbText
 10
183.39
 20
420.69
 30
0.0
 40
10.0
  1
３４０
 50
90.0
 41
0.85
  7
KANJI0
100
AcDbText
  0
TEXT
  5
118
330
1F
100
AcDbEntity
  8
2
  6
Continuous
 62
     1
100
AcDbText
 10
177.39
 20
446.19
 30
0.0
 40
6.0
  1
±３．０
 50
90.0
 41
0.85
  7
KANJI1
100
AcDbText
  0
LINE
  5
11A
330
1F
100
AcDbEntity
  8
2
  6
Continuous
 62
     1
100
AcDbLine
 10
248.05
 20
618.34
 30
0.0
 11
248.05
 21
670.75
 31
0.0
  0
LINE
  5
11B
330
1F
100
AcDbEntity
  8
2
  6
Continuous
 62
     1
100
AcDbLine
 10
248.05
 20
660.75
 30
0.0
 11
257.709258263
 21
658.161809549
 31
0.0
  0
LINE
  5
11C
330
1F
100
AcDbEntity
  8
2
  6
Continuous
 62
     1
100
AcDbLine
 10
248.05
 20
660.75
 30
0.0
 11
257.709258263
 21
663.338190451
 31
0.0
  0
LWPOLYLINE
  5
11E
330
1F
100
AcDbEntity
  8
2
  6
Continuous
 62
     1
100
AcDbPolyline
 90
     3
 70
   128
 43
0.0
 10
248.05
 20
660.75
 10
680.05
 20
660.75
 10
670.390741737
 20
663.338190451
  0
LINE
  5
11F
330
1F
100
AcDbEntity
  8
2
  6
Continuous
 62
     1
100
AcDbLine
 10
680.05
 20
660.75
 30
0.0
 11
670.390741737
 21
658.161809549
 31
0.0
  0
LINE
  5
120
330
1F
100
AcDbEntity
  8
2
  6
Continuous
 62
     1
100
AcDbLine
 10
680.05
 20
618.34
 30
0.0
 11
680.05
 21
670.75
 31
0.0
  0
TEXT
  5
121
330
1F
100
AcDbEntity
  8
2
  6
Continuous
 62
     1
100
AcDbText
 10
466.6
 20
671.75
 30
0.0
 40
6.0
  1
±３．０
 41
0.85
  7
KANJI1
100
AcDbText
  0
TEXT
  5
122
330
1F
100
AcDbEntity
  8
2
  6
Continuous
 62
     1
100
AcDbText
 10
441.1
 20
665.75
 30
0.0
 40
10.0
  1
４３０
 41
0.85
  7
KANJI0
100
AcDbText
  0
LINE
  5
123
330
1F
100
AcDbEntity
  8
2
  6
Continuous
 62
     2
100
AcDbLine
 10
785.15
 20
273.64
 30
0.0
 11
785.15
 21
274.64
 31
0.0
  0
LINE
  5
124
330
1F
100
AcDbEntity
  8
2
  6
Continuous
 62
     2
100
AcDbLine
 10
785.15
 20
273.64
 30
0.0
 11
827.85
 21
273.64
 31
0.0
  0
LWPOLYLINE
  5
127
330
1F
100
AcDbEntity
  8
2
  6
Continuous
 62
     2
100
AcDbPolyline
 90
     3
 70
   128
 43
0.0
 10
786.15
 20
613.64
 42
0.0
 10
827.85
 20
613.64
 42
-0.414213562
 10
828.85
 20
612.64
 42
0.0
  0
LINE
  5
128
330
1F
100
AcDbEntity
  8
2
  6
Continuous
 62
     2
100
AcDbLine
 10
828.55
 20
612.64
 30
0.0
 11
827.55
 21
613.64
 31
0.0
  0
LINE
  5
129
330
1F
100
AcDbEntity
  8
2
  6
Continuous
 62
     2
100
AcDbLine
 10
785.15
 20
613.64
 30
0.0
 11
827.55
 21
613.64
 31
0.0
  0
LINE
  5
12A
330
1F
100
AcDbEntity
  8
2
  6
Continuous
 62
     2
100
AcDbLine
 10
787.15
 20
273.64
 30
0.0
 11
787.15
 21
275.64
 31
0.0
  0
LINE
  5
12B
330
1F
100
AcDbEntity
  8
2
  6
Continuous
 62
     2
100
AcDbLine
 10
826.85
 20
273.64
 30
0.0
 11
826.85
 21
275.64
 31
0.0
  0
LINE
  5
12C
330
1F
100
AcDbEntity
  8
2
  6
Continuous
 62
     2
100
AcDbLine
 10
785.15
 20
273.64
 30
0.0
 11
828.85
 21
273.64
 31
0.0
  0
LINE
  5
12D
330
1F
100
AcDbEntity
  8
2
  6
Continuous
 62
     2
100
AcDbLine
 10
785.15
 20
275.64
 30
0.0
 11
828.85
 21
275.64
 31
0.0
  0
CIRCLE
  5
12E
330
1F
100
AcDbEntity
  8
2
  6
Continuous
 62
     2
100
AcDbCircle
 10
823.85
 20
308.64
 30
0.0
 40
4.0
  0
CIRCLE
  5
12F
330
1F
100
AcDbEntity
  8
2
  6
Continuous
 62
     2
100
AcDbCircle
 10
790.15
 20
308.64
 30
0.0
 40
4.0
  0
LWPOLYLINE
  5
132
330
1F
100
AcDbEntity
  8
2
  6
Continuous
 62
     2
100
AcDbPolyline
 90
     3
 70
   128
 43
0.0
 10
785.15
 20
273.64
 42
0.0
 10
785.15
 20
340.64
 42
-0.414213562
 10
788.15
 20
343.64
 42
0.0
  0
LINE
  5
133
330
1F
100
AcDbEntity
  8
2
  6
Continuous
 62
     2
100
AcDbLine
 10
788.15
 20
343.64
 30
0.0
 11
825.85
 21
343.64
 31
0.0
  0
LINE
  5
134
330
1F
100
AcDbEntity
  8
2
  6
Continuous
 62
     2
100
AcDbLine
 10
828.85
 20
273.64
 30
0.0
 11
828.85
 21
340.64
 31
0.0
  0
ARC
  5
135
330
1F
100
AcDbEntity
  8
2
  6
Continuous
 62
     2
100
AcDbCircle
 10
825.85
 20
340.64
 30
0.0
 40
3.0
100
AcDbArc
 50
0.0
 51
90.0
  0
LINE
  5
136
330
1F
100
AcDbEntity
  8
2
  6
Continuous
 62
     2
100
AcDbLine
 10
828.85
 20
612.64
 30
0.0
 11
828.85
 21
340.64
 31
0.0
  0
LINE
  5
137
330
1F
100
AcDbEntity
  8
2
  6
Continuous
 62
     2
100
AcDbLine
 10
828.55
 20
612.64
 30
0.0
 11
828.55
 21
341.947669683
 31
0.0
  0
LINE
  5
138
330
1F
100
AcDbEntity
  8
2
  6
Continuous
 62
     2
100
AcDbLine
 10
785.15
 20
613.64
 30
0.0
 11
785.15
 21
340.64
 31
0.0
  0
LWPOLYLINE
  5
13A
330
1F
100
AcDbEntity
  8
2
  6
Continuous
 62
     1
100
AcDbPolyline
 90
     4
 70
   129
 43
0.0
 10
787.47
 20
556.07
 10
818.39
 20
556.07
 10
818.39
 20
600.09
 10
787.47
 20
600.09
  0
TEXT
  5
13B
330
1F
100
AcDbEntity
  8
2
  6
Continuous
 62
     1
100
AcDbText
 10
807.11
 20
560.215
 30
0.0
 40
9.0
  1
型式銘板
 50
90.0
 41
0.9
  7
KANJI2
100
AcDbText
  0
LINE
  5
13D
330
1F
100
AcDbEntity
  8
2
  6
Continuous
 62
     1
100
AcDbLine
 10
780.15
 20
613.64
 30
0.0
 11
751.45
 21
613.64
 31
0.0
  0
LINE
  5
13E
330
1F
100
AcDbEntity
  8
2
  6
Continuous
 62
     1
100
AcDbLine
 10
761.45
 20
613.64
 30
0.0
 11
764.038190451
 21
623.299258263
 31
0.0
  0
LINE
  5
13F
330
1F
100
AcDbEntity
  8
2
  6
Continuous
 62
     1
100
AcDbLine
 10
761.45
 20
613.64
 30
0.0
 11
758.861809549
 21
623.299258263
 31
0.0
  0
LWPOLYLINE
  5
141
330
1F
100
AcDbEntity
  8
2
  6
Continuous
 62
     1
100
AcDbPolyline
 90
     3
 70
   128
 43
0.0
 10
761.45
 20
613.64
 10
761.45
 20
638.64
 10
758.861809549
 20
628.980741737
  0
LINE
  5
142
330
1F
100
AcDbEntity
  8
2
  6
Continuous
 62
     1
100
AcDbLine
 10
761.45
 20
638.64
 30
0.0
 11
764.038190451
 21
628.980741737
 31
0.0
  0
LINE
  5
143
330
1F
100
AcDbEntity
  8
2
  6
Continuous
 62
     1
100
AcDbLine
 10
786.85
 20
638.64
 30
0.0
 11
751.45
 21
638.64
 31
0.0
  0
TEXT
  5
144
330
1F
100
AcDbEntity
  8
2
  6
Continuous
 62
     1
100
AcDbText
 10
756.45
 20
609.14
 30
0.0
 40
10.0
  1
（２５）
 50
90.0
 41
0.85
  7
KANJI0
100
AcDbText
  0
LINE
  5
145
330
1F
100
AcDbEntity
  8
2
  6
Continuous
 62
     1
100
AcDbLine
 10
780.15
 20
273.64
 30
0.0
 11
751.45
 21
273.64
 31
0.0
  0
LINE
  5
146
330
1F
100
AcDbEntity
  8
2
  6
Continuous
 62
     1
100
AcDbLine
 10
761.45
 20
273.64
 30
0.0
 11
758.861809549
 21
263.980741737
 31
0.0
  0
LINE
  5
147
330
1F
100
AcDbEntity
  8
2
  6
Continuous
 62
     1
100
AcDbLine
 10
761.45
 20
273.64
 30
0.0
 11
764.038190451
 21
263.980741737
 31
0.0
  0
LWPOLYLINE
  5
149
330
1F
100
AcDbEntity
  8
2
  6
Continuous
 62
     1
100
AcDbPolyline
 90
     3
 70
   128
 43
0.0
 10
761.45
 20
273.64
 10
761.45
 20
234.64
 10
764.038190451
 20
244.299258263
  0
LINE
  5
14A
330
1F
100
AcDbEntity
  8
2
  6
Continuous
 62
     1
100
AcDbLine
 10
761.45
 20
234.64
 30
0.0
 11
758.861809549
 21
244.299258263
 31
0.0
  0
TEXT
  5
14B
330
1F
100
AcDbEntity
  8
2
  6
Continuous
 62
     1
100
AcDbText
 10
756.45
 20
237.14
 30
0.0
 40
10.0
  1
（３９）
 50
90.0
 41
0.85
  7
KANJI0
100
AcDbText
  0
LINE
  5
14C
330
1F
100
AcDbEntity
  8
2
  6
Continuous
 62
     1
100
AcDbLine
 10
805.94
 20
686.25
 30
0.0
 11
795.94
 21
676.25
 31
0.0
  0
LINE
  5
14D
330
1F
100
AcDbEntity
  8
2
  6
Continuous
 62
     1
100
AcDbLine
 10
800.94
 20
676.25
 30
0.0
 11
795.94
 21
676.25
 31
0.0
  0
LINE
  5
14E
330
1F
100
AcDbEntity
  8
2
  6
Continuous
 62
     1
100
AcDbLine
 10
800.94
 20
676.25
 30
0.0
 11
800.94
 21
656.25
 31
0.0
  0
LINE
  5
14F
330
1F
100
AcDbEntity
  8
2
  6
Continuous
 62
     1
100
AcDbLine
 10
800.94
 20
656.25
 30
0.0
 11
810.94
 21
656.25
 31
0.0
  0
LINE
  5
150
330
1F
100
AcDbEntity
  8
2
  6
Continuous
 62
     1
100
AcDbLine
 10
810.94
 20
656.25
 30
0.0
 11
810.94
 21
676.25
 31
0.0
  0
LINE
  5
151
330
1F
100
AcDbEntity
  8
2
  6
Continuous
 62
     1
100
AcDbLine
 10
810.94
 20
676.25
 30
0.0
 11
815.94
 21
676.25
 31
0.0
  0
LINE
  5
152
330
1F
100
AcDbEntity
  8
2
  6
Continuous
 62
     1
100
AcDbLine
 10
815.94
 20
676.25
 30
0.0
 11
805.94
 21
686.25
 31
0.0
  0
TEXT
  5
153
330
1F
100
AcDbEntity
  8
2
  6
Continuous
 62
     1
100
AcDbText
 10
795.94
 20
656.25
 30
0.0
 40
17.5
  1
ＡＩＲ
 50
90.0
 41
0.5
  7
KANJI3
100
AcDbText
  0
LINE
  5
155
330
1F
100
AcDbEntity
  8
2
  6
Continuous
 62
     1
100
AcDbLine
 10
676.86
 20
806.21
 30
0.0
 11
727.86
 21
806.21
 31
0.0
  0
TEXT
  5
156
330
1F
100
AcDbEntity
  8
2
  6
Continuous
 62
     1
100
AcDbText
 10
676.86
 20
811.21
 30
0.0
 40
10.0
  1
ＤＣ入力端子台
 41
0.85
  7
KANJI0
100
AcDbText
  0
TEXT
  5
157
330
1F
100
AcDbEntity
  8
2
  6
Continuous
 62
     1
100
AcDbText
 10
677.23
 20
791.06
 30
0.0
 40
10.0
  1
端子ネジ：Ｍ５
 41
0.85
  7
KANJI0
100
AcDbText
  0
LINE
  5
158
330
1F
100
AcDbEntity
  8
2
  6
Continuous
 62
     1
100
AcDbLine
 10
512.07
 20
764.46
 30
0.0
 11
518.886805525
 21
771.776499329
 31
0.0
  0
LINE
  5
159
330
1F
100
AcDbEntity
  8
2
  6
Continuous
 62
     1
100
AcDbLine
 10
512.07
 20
764.46
 30
0.0
 11
514.315277093
 21
774.204677048
 31
0.0
  0
LWPOLYLINE
  5
15B
330
1F
100
AcDbEntity
  8
2
  6
Continuous
 62
     1
100
AcDbPolyline
 90
     3
 70
   128
 43
0.0
 10
512.07
 20
764.46
 10
534.15
 20
806.03
 10
589.4
 20
806.03
  0
TEXT
  5
15C
330
1F
100
AcDbEntity
  8
2
  6
Continuous
 62
     1
100
AcDbText
 10
534.15
 20
811.03
 30
0.0
 40
10.0
  1
強制空冷用ファン
 41
0.85
  7
KANJI0
100
AcDbText
  0
LINE
  5
15D
330
1F
100
AcDbEntity
  8
2
  6
Continuous
 62
     1
100
AcDbLine
 10
431.137179223
 20
805.452820777
 30
0.0
 11
473.637179223
 21
805.452820777
 31
0.0
  0
TEXT
  5
15E
330
1F
100
AcDbEntity
  8
2
  6
Continuous
 62
     1
100
AcDbText
 10
431.137179223
 20
810.452820777
 30
0.0
 40
10.0
  1
リモートコントロール
 41
0.425
  7
KANJI4
100
AcDbText
  0
LINE
  5
160
330
1F
100
AcDbEntity
  8
2
  6
Continuous
 62
     1
100
AcDbLine
 10
431.137179223
 20
699.482820777
 30
0.0
 11
465.137179223
 21
699.482820777
 31
0.0
  0
TEXT
  5
161
330
1F
100
AcDbEntity
  8
2
  6
Continuous
 62
     1
100
AcDbText
 10
431.137179223
 20
704.482820777
 30
0.0
 40
10.0
  1
警報出力
 41
0.85
  7
KANJI0
100
AcDbText
  0
LINE
  5
162
330
1F
100
AcDbEntity
  8
2
  6
Continuous
 62
     1
100
AcDbLine
 10
340.477179223
 20
698.992820777
 30
0.0
 11
293.727179223
 21
698.992820777
 31
0.0
  0
TEXT
  5
163
330
1F
100
AcDbEntity
  8
2
  6
Continuous
 62
     1
100
AcDbText
 10
293.727179223
 20
703.992820777
 30
0.0
 40
10.0
  1
ＡＣ出力コンセント
 41
0.85
  7
KANJI0
100
AcDbText
  0
LINE
  5
164
330
1F
100
AcDbEntity
  8
2
  6
Continuous
 62
     1
100
AcDbLine
 10
303.3600005
 20
762.22
 30
0.0
 11
309.93158211
 21
769.757527124
 31
0.0
  0
LINE
  5
165
330
1F
100
AcDbEntity
  8
2
  6
Continuous
 62
     1
100
AcDbLine
 10
303.3600005
 20
762.22
 30
0.0
 11
305.282393556
 21
772.033480776
 31
0.0
  0
LWPOLYLINE
  5
167
330
1F
100
AcDbEntity
  8
2
  6
Continuous
 62
     1
100
AcDbPolyline
 90
     3
 70
   128
 43
0.0
 10
303.3600005
 20
762.22
 10
324.6500005
 20
805.71
 10
384.1500005
 20
805.71
  0
TEXT
  5
168
330
1F
100
AcDbEntity
  8
2
  6
Continuous
 62
     1
100
AcDbText
 10
324.6500005
 20
810.71
 30
0.0
 40
10.0
  1
ＡＣ入出力端子台
 41
0.85
  7
KANJI0
100
AcDbText
  0
TEXT
  5
169
330
1F
100
AcDbEntity
  8
2
  6
Continuous
 62
     1
100
AcDbText
 10
325.0200005
 20
790.56
 30
0.0
 40
10.0
  1
端子ネジ：Ｍ４
 41
0.85
  7
KANJI0
100
AcDbText
  0
LINE
  5
16A
330
1F
100
AcDbEntity
  8
2
  6
Continuous
 62
     1
100
AcDbLine
 10
322.302
 20
621.985
 30
0.0
 11
330.402
 21
621.985
 31
0.0
  0
LINE
  5
16B
330
1F
100
AcDbEntity
  8
2
  6
Continuous
 62
     1
100
AcDbLine
 10
322.302
 20
622.985
 30
0.0
 11
330.402
 21
622.985
 31
0.0
  0
LINE
  5
16C
330
1F
100
AcDbEntity
  8
2
  6
Continuous
 62
     1
100
AcDbLine
 10
331.802
 20
621.985
 30
0.0
 11
339.902
 21
621.985
 31
0.0
  0
LINE
  5
16D
330
1F
100
AcDbEntity
  8
2
  6
Continuous
 62
     1
100
AcDbLine
 10
331.802
 20
622.985
 30
0.0
 11
339.902
 21
622.985
 31
0.0
  0
LINE
  5
16E
330
1F
100
AcDbEntity
  8
2
  6
Continuous
 62
     1
100
AcDbLine
 10
349.452
 20
622.985
 30
0.0
 11
341.302
 21
622.985
 31
0.0
  0
LINE
  5
16F
330
1F
100
AcDbEntity
  8
2
  6
Continuous
 62
     1
100
AcDbLine
 10
349.452
 20
621.985
 30
0.0
 11
341.302
 21
621.985
 31
0.0
  0
LINE
  5
170
330
1F
100
AcDbEntity
  8
2
  6
Continuous
 62
     1
100
AcDbLine
 10
322.302
 20
630.985
 30
0.0
 11
320.902
 21
630.985
 31
0.0
  0
LINE
  5
171
330
1F
100
AcDbEntity
  8
2
  6
Continuous
 62
     1
100
AcDbLine
 10
331.802
 20
630.985
 30
0.0
 11
330.402
 21
630.985
 31
0.0
  0
LINE
  5
172
330
1F
100
AcDbEntity
  8
2
  6
Continuous
 62
     1
100
AcDbLine
 10
341.302
 20
630.985
 30
0.0
 11
339.902
 21
630.985
 31
0.0
  0
LINE
  5
173
330
1F
100
AcDbEntity
  8
2
  6
Continuous
 62
     1
100
AcDbLine
 10
320.902
 20
617.985
 30
0.0
 11
320.902
 21
630.985
 31
0.0
  0
LINE
  5
174
330
1F
100
AcDbEntity
  8
2
  6
Continuous
 62
     1
100
AcDbLine
 10
322.302
 20
617.985
 30
0.0
 11
322.302
 21
630.985
 31
0.0
  0
LWPOLYLINE
  5
176
330
1F
100
AcDbEntity
  8
2
  6
Continuous
 62
     1
100
AcDbPolyline
 90
     3
 70
   128
 43
0.0
 10
322.302
 20
617.985
 10
330.402
 20
617.985
 10
330.402
 20
630.985
  0
LINE
  5
177
330
1F
100
AcDbEntity
  8
2
  6
Continuous
 62
     1
100
AcDbLine
 10
331.802
 20
617.985
 30
0.0
 11
331.802
 21
630.985
 31
0.0
  0
LINE
  5
178
330
1F
100
AcDbEntity
  8
2
  6
Continuous
 62
     1
100
AcDbLine
 10
339.902
 20
617.985
 30
0.0
 11
339.902
 21
630.985
 31
0.0
  0
LINE
  5
179
330
1F
100
AcDbEntity
  8
2
  6
Continuous
 62
     1
100
AcDbLine
 10
331.802
 20
617.985
 30
0.0
 11
339.902
 21
617.985
 31
0.0
  0
LINE
  5
17A
330
1F
100
AcDbEntity
  8
2
  6
Continuous
 62
     1
100
AcDbLine
 10
349.452
 20
617.985
 30
0.0
 11
341.302
 21
617.985
 31
0.0
  0
LINE
  5
17B
330
1F
100
AcDbEntity
  8
2
  6
Continuous
 62
     1
100
AcDbLine
 10
312.802
 20
622.985
 30
0.0
 11
320.902
 21
622.985
 31
0.0
  0
LINE
  5
17C
330
1F
100
AcDbEntity
  8
2
  6
Continuous
 62
     1
100
AcDbLine
 10
312.802
 20
621.985
 30
0.0
 11
320.902
 21
621.985
 31
0.0
  0
LINE
  5
17D
330
1F
100
AcDbEntity
  8
2
  6
Continuous
 62
     1
100
AcDbLine
 10
303.302
 20
621.985
 30
0.0
 11
311.402
 21
621.985
 31
0.0
  0
LINE
  5
17E
330
1F
100
AcDbEntity
  8
2
  6
Continuous
 62
     1
100
AcDbLine
 10
303.302
 20
622.985
 30
0.0
 11
311.402
 21
622.985
 31
0.0
  0
LINE
  5
17F
330
1F
100
AcDbEntity
  8
2
  6
Continuous
 62
     1
100
AcDbLine
 10
293.802
 20
622.985
 30
0.0
 11
301.902
 21
622.985
 31
0.0
  0
LINE
  5
180
330
1F
100
AcDbEntity
  8
2
  6
Continuous
 62
     1
100
AcDbLine
 10
293.802
 20
621.985
 30
0.0
 11
301.902
 21
621.985
 31
0.0
  0
LINE
  5
181
330
1F
100
AcDbEntity
  8
2
  6
Continuous
 62
     1
100
AcDbLine
 10
293.802
 20
630.985
 30
0.0
 11
292.402
 21
630.985
 31
0.0
  0
LINE
  5
182
330
1F
100
AcDbEntity
  8
2
  6
Continuous
 62
     1
100
AcDbLine
 10
303.302
 20
630.985
 30
0.0
 11
301.902
 21
630.985
 31
0.0
  0
LINE
  5
183
330
1F
100
AcDbEntity
  8
2
  6
Continuous
 62
     1
100
AcDbLine
 10
312.802
 20
630.985
 30
0.0
 11
311.402
 21
630.985
 31
0.0
  0
LINE
  5
184
330
1F
100
AcDbEntity
  8
2
  6
Continuous
 62
     1
100
AcDbLine
 10
293.802
 20
617.985
 30
0.0
 11
293.802
 21
630.985
 31
0.0
  0
LWPOLYLINE
  5
186
330
1F
100
AcDbEntity
  8
2
  6
Continuous
 62
     1
100
AcDbPolyline
 90
     3
 70
   128
 43
0.0
 10
293.802
 20
617.985
 10
301.902
 20
617.985
 10
301.902
 20
630.985
  0
LINE
  5
187
330
1F
100
AcDbEntity
  8
2
  6
Continuous
 62
     1
100
AcDbLine
 10
303.302
 20
617.985
 30
0.0
 11
303.302
 21
630.985
 31
0.0
  0
LWPOLYLINE
  5
189
330
1F
100
AcDbEntity
  8
2
  6
Continuous
 62
     1
100
AcDbPolyline
 90
     3
 70
   128
 43
0.0
 10
303.302
 20
617.985
 10
311.402
 20
617.985
 10
311.402
 20
630.985
  0
LINE
  5
18A
330
1F
100
AcDbEntity
  8
2
  6
Continuous
 62
     1
100
AcDbLine
 10
312.802
 20
617.985
 30
0.0
 11
312.802
 21
630.985
 31
0.0
  0
LINE
  5
18B
330
1F
100
AcDbEntity
  8
2
  6
Continuous
 62
     1
100
AcDbLine
 10
312.802
 20
617.985
 30
0.0
 11
320.902
 21
617.985
 31
0.0
  0
LINE
  5
18C
330
1F
100
AcDbEntity
  8
2
  6
Continuous
 62
     1
100
AcDbLine
 10
349.452
 20
613.64
 30
0.0
 11
349.452
 21
622.985
 31
0.0
  0
LINE
  5
18D
330
1F
100
AcDbEntity
  8
2
  6
Continuous
 62
     1
100
AcDbLine
 10
341.302
 20
617.985
 30
0.0
 11
341.302
 21
631.985
 31
0.0
  0
LINE
  5
18E
330
1F
100
AcDbEntity
  8
2
  6
Continuous
 62
     1
100
AcDbLine
 10
292.402
 20
617.985
 30
0.0
 11
292.402
 21
631.985
 31
0.0
  0
LINE
  5
18F
330
1F
100
AcDbEntity
  8
2
  6
Continuous
 62
     1
100
AcDbLine
 10
341.302
 20
631.985
 30
0.0
 11
292.402
 21
631.985
 31
0.0
  0
LINE
  5
190
330
1F
100
AcDbEntity
  8
2
  6
Continuous
 62
     1
100
AcDbLine
 10
341.302
 20
629.985
 30
0.0
 11
292.402
 21
629.985
 31
0.0
  0
LINE
  5
191
330
1F
100
AcDbEntity
  8
2
  6
Continuous
 62
     1
100
AcDbLine
 10
293.802
 20
630.985
 30
0.0
 11
301.902
 21
630.985
 31
0.0
  0
LINE
  5
192
330
1F
100
AcDbEntity
  8
2
  6
Continuous
 62
     1
100
AcDbLine
 10
303.302
 20
630.985
 30
0.0
 11
311.402
 21
630.985
 31
0.0
  0
LINE
  5
193
330
1F
100
AcDbEntity
  8
2
  6
Continuous
 62
     1
100
AcDbLine
 10
312.802
 20
630.985
 30
0.0
 11
320.902
 21
630.985
 31
0.0
  0
LINE
  5
194
330
1F
100
AcDbEntity
  8
2
  6
Continuous
 62
     1
100
AcDbLine
 10
322.302
 20
630.985
 30
0.0
 11
330.402
 21
630.985
 31
0.0
  0
LINE
  5
195
330
1F
100
AcDbEntity
  8
2
  6
Continuous
 62
     1
100
AcDbLine
 10
331.802
 20
630.985
 30
0.0
 11
339.902
 21
630.985
 31
0.0
  0
LINE
  5
196
330
1F
100
AcDbEntity
  8
2
  6
Continuous
 62
     1
100
AcDbLine
 10
291.527
 20
622.985
 30
0.0
 11
291.527
 21
623.785
 31
0.0
  0
LWPOLYLINE
  5
198
330
1F
100
AcDbEntity
  8
2
  6
Continuous
 62
     1
100
AcDbPolyline
 90
     3
 70
   128
 43
0.0
 10
291.527
 20
623.785
 10
285.127
 20
623.785
 10
285.127
 20
622.985
  0
LWPOLYLINE
  5
19A
330
1F
100
AcDbEntity
  8
2
  6
Continuous
 62
     1
100
AcDbPolyline
 90
     4
 70
   129
 43
0.0
 10
291.527
 20
623.785
 10
291.527
 20
624.585
 10
285.127
 20
624.585
 10
285.127
 20
623.785
  0
LINE
  5
19B
330
1F
100
AcDbEntity
  8
2
  6
Continuous
 62
     1
100
AcDbLine
 10
285.127
 20
624.585
 30
0.0
 11
291.527
 21
624.585
 31
0.0
  0
LWPOLYLINE
  5
19E
330
1F
100
AcDbEntity
  8
2
  6
Continuous
 62
     1
100
AcDbPolyline
 90
     3
 70
   128
 43
0.0
 10
285.127
 20
624.585
 42
0.0
 10
285.127
 20
624.585
 42
-0.414213562
 10
287.127
 20
626.585
 42
0.0
  0
ARC
  5
19F
330
1F
100
AcDbEntity
  8
2
  6
Continuous
 62
     1
100
AcDbCircle
 10
289.527
 20
624.585
 30
0.0
 40
2.0
100
AcDbArc
 50
0.0
 51
90.0
  0
LINE
  5
1A0
330
1F
100
AcDbEntity
  8
2
  6
Continuous
 62
     1
100
AcDbLine
 10
287.127
 20
626.585
 30
0.0
 11
289.527
 21
626.585
 31
0.0
  0
LINE
  5
1A1
330
1F
100
AcDbEntity
  8
2
  6
Continuous
 62
     1
100
AcDbLine
 10
301.052
 20
622.985
 30
0.0
 11
301.052
 21
623.785
 31
0.0
  0
LWPOLYLINE
  5
1A3
330
1F
100
AcDbEntity
  8
2
  6
Continuous
 62
     1
100
AcDbPolyline
 90
     3
 70
   128
 43
0.0
 10
301.052
 20
623.785
 10
294.652
 20
623.785
 10
294.652
 20
622.985
  0
LWPOLYLINE
  5
1A5
330
1F
100
AcDbEntity
  8
2
  6
Continuous
 62
     1
100
AcDbPolyline
 90
     4
 70
   129
 43
0.0
 10
301.052
 20
623.785
 10
301.052
 20
624.585
 10
294.652
 20
624.585
 10
294.652
 20
623.785
  0
LINE
  5
1A6
330
1F
100
AcDbEntity
  8
2
  6
Continuous
 62
     1
100
AcDbLine
 10
294.652
 20
624.585
 30
0.0
 11
301.052
 21
624.585
 31
0.0
  0
LWPOLYLINE
  5
1A9
330
1F
100
AcDbEntity
  8
2
  6
Continuous
 62
     1
100
AcDbPolyline
 90
     3
 70
   128
 43
0.0
 10
294.652
 20
624.585
 42
0.0
 10
294.652
 20
624.585
 42
-0.414213562
 10
296.652
 20
626.585
 42
0.0
  0
ARC
  5
1AA
330
1F
100
AcDbEntity
  8
2
  6
Continuous
 62
     1
100
AcDbCircle
 10
299.052
 20
624.585
 30
0.0
 40
2.0
100
AcDbArc
 50
0.0
 51
90.0
  0
LINE
  5
1AB
330
1F
100
AcDbEntity
  8
2
  6
Continuous
 62
     1
100
AcDbLine
 10
296.652
 20
626.585
 30
0.0
 11
299.052
 21
626.585
 31
0.0
  0
LINE
  5
1AC
330
1F
100
AcDbEntity
  8
2
  6
Continuous
 62
     1
100
AcDbLine
 10
310.552
 20
622.985
 30
0.0
 11
310.552
 21
623.785
 31
0.0
  0
LWPOLYLINE
  5
1AE
330
1F
100
AcDbEntity
  8
2
  6
Continuous
 62
     1
100
AcDbPolyline
 90
     3
 70
   128
 43
0.0
 10
310.552
 20
623.785
 10
304.152
 20
623.785
 10
304.152
 20
622.985
  0
LWPOLYLINE
  5
1B0
330
1F
100
AcDbEntity
  8
2
  6
Continuous
 62
     1
100
AcDbPolyline
 90
     4
 70
   129
 43
0.0
 10
310.552
 20
623.785
 10
310.552
 20
624.585
 10
304.152
 20
624.585
 10
304.152
 20
623.785
  0
LINE
  5
1B1
330
1F
100
AcDbEntity
  8
2
  6
Continuous
 62
     1
100
AcDbLine
 10
304.152
 20
624.585
 30
0.0
 11
310.552
 21
624.585
 31
0.0
  0
LWPOLYLINE
  5
1B4
330
1F
100
AcDbEntity
  8
2
  6
Continuous
 62
     1
100
AcDbPolyline
 90
     3
 70
   128
 43
0.0
 10
304.152
 20
624.585
 42
0.0
 10
304.152
 20
624.585
 42
-0.414213562
 10
306.152
 20
626.585
 42
0.0
  0
ARC
  5
1B5
330
1F
100
AcDbEntity
  8
2
  6
Continuous
 62
     1
100
AcDbCircle
 10
308.552
 20
624.585
 30
0.0
 40
2.0
100
AcDbArc
 50
0.0
 51
90.0
  0
LINE
  5
1B6
330
1F
100
AcDbEntity
  8
2
  6
Continuous
 62
     1
100
AcDbLine
 10
306.152
 20
626.585
 30
0.0
 11
308.552
 21
626.585
 31
0.0
  0
LINE
  5
1B7
330
1F
100
AcDbEntity
  8
2
  6
Continuous
 62
     1
100
AcDbLine
 10
320.05
 20
622.985
 30
0.0
 11
320.05
 21
623.785
 31
0.0
  0
LWPOLYLINE
  5
1B9
330
1F
100
AcDbEntity
  8
2
  6
Continuous
 62
     1
100
AcDbPolyline
 90
     3
 70
   128
 43
0.0
 10
320.05
 20
623.785
 10
313.65
 20
623.785
 10
313.65
 20
622.985
  0
LWPOLYLINE
  5
1BB
330
1F
100
AcDbEntity
  8
2
  6
Continuous
 62
     1
100
AcDbPolyline
 90
     4
 70
   129
 43
0.0
 10
320.05
 20
623.785
 10
320.05
 20
624.585
 10
313.65
 20
624.585
 10
313.65
 20
623.785
  0
LINE
  5
1BC
330
1F
100
AcDbEntity
  8
2
  6
Continuous
 62
     1
100
AcDbLine
 10
313.65
 20
624.585
 30
0.0
 11
320.05
 21
624.585
 31
0.0
  0
LWPOLYLINE
  5
1BF
330
1F
100
AcDbEntity
  8
2
  6
Continuous
 62
     1
100
AcDbPolyline
 90
     3
 70
   128
 43
0.0
 10
313.65
 20
624.585
 42
0.0
 10
313.65
 20
624.585
 42
-0.414213562
 10
315.65
 20
626.585
 42
0.0
  0
ARC
  5
1C0
330
1F
100
AcDbEntity
  8
2
  6
Continuous
 62
     1
100
AcDbCircle
 10
318.05
 20
624.585
 30
0.0
 40
2.0
100
AcDbArc
 50
0.0
 51
90.0
  0
LINE
  5
1C1
330
1F
100
AcDbEntity
  8
2
  6
Continuous
 62
     1
100
AcDbLine
 10
315.65
 20
626.585
 30
0.0
 11
318.05
 21
626.585
 31
0.0
  0
LINE
  5
1C2
330
1F
100
AcDbEntity
  8
2
  6
Continuous
 62
     1
100
AcDbLine
 10
329.552
 20
622.985
 30
0.0
 11
329.552
 21
623.785
 31
0.0
  0
LWPOLYLINE
  5
1C4
330
1F
100
AcDbEntity
  8
2
  6
Continuous
 62
     1
100
AcDbPolyline
 90
     3
 70
   128
 43
0.0
 10
329.552
 20
623.785
 10
323.152
 20
623.785
 10
323.152
 20
622.985
  0
LWPOLYLINE
  5
1C6
330
1F
100
AcDbEntity
  8
2
  6
Continuous
 62
     1
100
AcDbPolyline
 90
     4
 70
   129
 43
0.0
 10
329.552
 20
623.785
 10
329.552
 20
624.585
 10
323.152
 20
624.585
 10
323.152
 20
623.785
  0
LINE
  5
1C7
330
1F
100
AcDbEntity
  8
2
  6
Continuous
 62
     1
100
AcDbLine
 10
323.152
 20
624.585
 30
0.0
 11
329.552
 21
624.585
 31
0.0
  0
LWPOLYLINE
  5
1CA
330
1F
100
AcDbEntity
  8
2
  6
Continuous
 62
     1
100
AcDbPolyline
 90
     3
 70
   128
 43
0.0
 10
323.152
 20
624.585
 42
0.0
 10
323.152
 20
624.585
 42
-0.414213562
 10
325.152
 20
626.585
 42
0.0
  0
ARC
  5
1CB
330
1F
100
AcDbEntity
  8
2
  6
Continuous
 62
     1
100
AcDbCircle
 10
327.552
 20
624.585
 30
0.0
 40
2.0
100
AcDbArc
 50
0.0
 51
90.0
  0
LINE
  5
1CC
330
1F
100
AcDbEntity
  8
2
  6
Continuous
 62
     1
100
AcDbLine
 10
325.152
 20
626.585
 30
0.0
 11
327.552
 21
626.585
 31
0.0
  0
LINE
  5
1CD
330
1F
100
AcDbEntity
  8
2
  6
Continuous
 62
     1
100
AcDbLine
 10
339.052
 20
622.985
 30
0.0
 11
339.052
 21
623.785
 31
0.0
  0
LWPOLYLINE
  5
1CF
330
1F
100
AcDbEntity
  8
2
  6
Continuous
 62
     1
100
AcDbPolyline
 90
     3
 70
   128
 43
0.0
 10
339.052
 20
623.785
 10
332.652
 20
623.785
 10
332.652
 20
622.985
  0
LWPOLYLINE
  5
1D1
330
1F
100
AcDbEntity
  8
2
  6
Continuous
 62
     1
100
AcDbPolyline
 90
     4
 70
   129
 43
0.0
 10
339.052
 20
623.785
 10
339.052
 20
624.585
 10
332.652
 20
624.585
 10
332.652
 20
623.785
  0
LINE
  5
1D2
330
1F
100
AcDbEntity
  8
2
  6
Continuous
 62
     1
100
AcDbLine
 10
332.652
 20
624.585
 30
0.0
 11
339.052
 21
624.585
 31
0.0
  0
LWPOLYLINE
  5
1D5
330
1F
100
AcDbEntity
  8
2
  6
Continuous
 62
     1
100
AcDbPolyline
 90
     3
 70
   128
 43
0.0
 10
332.652
 20
624.585
 42
0.0
 10
332.652
 20
624.585
 42
-0.414213562
 10
334.652
 20
626.585
 42
0.0
  0
ARC
  5
1D6
330
1F
100
AcDbEntity
  8
2
  6
Continuous
 62
     1
100
AcDbCircle
 10
337.052
 20
624.585
 30
0.0
 40
2.0
100
AcDbArc
 50
0.0
 51
90.0
  0
LINE
  5
1D7
330
1F
100
AcDbEntity
  8
2
  6
Continuous
 62
     1
100
AcDbLine
 10
334.652
 20
626.585
 30
0.0
 11
337.052
 21
626.585
 31
0.0
  0
LINE
  5
1D8
330
1F
100
AcDbEntity
  8
2
  6
Continuous
 62
     1
100
AcDbLine
 10
348.577
 20
622.985
 30
0.0
 11
348.577
 21
623.785
 31
0.0
  0
LWPOLYLINE
  5
1DA
330
1F
100
AcDbEntity
  8
2
  6
Continuous
 62
     1
100
AcDbPolyline
 90
     3
 70
   128
 43
0.0
 10
348.577
 20
623.785
 10
342.177
 20
623.785
 10
342.177
 20
622.985
  0
LWPOLYLINE
  5
1DC
330
1F
100
AcDbEntity
  8
2
  6
Continuous
 62
     1
100
AcDbPolyline
 90
     4
 70
   129
 43
0.0
 10
348.577
 20
623.785
 10
348.577
 20
624.585
 10
342.177
 20
624.585
 10
342.177
 20
623.785
  0
LINE
  5
1DD
330
1F
100
AcDbEntity
  8
2
  6
Continuous
 62
     1
100
AcDbLine
 10
342.177
 20
624.585
 30
0.0
 11
348.577
 21
624.585
 31
0.0
  0
LWPOLYLINE
  5
1E0
330
1F
100
AcDbEntity
  8
2
  6
Continuous
 62
     1
100
AcDbPolyline
 90
     3
 70
   128
 43
0.0
 10
342.177
 20
624.585
 42
0.0
 10
342.177
 20
624.585
 42
-0.414213562
 10
344.177
 20
626.585
 42
0.0
  0
ARC
  5
1E1
330
1F
100
AcDbEntity
  8
2
  6
Continuous
 62
     1
100
AcDbCircle
 10
346.577
 20
624.585
 30
0.0
 40
2.0
100
AcDbArc
 50
0.0
 51
90.0
  0
LINE
  5
1E2
330
1F
100
AcDbEntity
  8
2
  6
Continuous
 62
     1
100
AcDbLine
 10
344.177
 20
626.585
 30
0.0
 11
346.577
 21
626.585
 31
0.0
  0
LINE
  5
1E3
330
1F
100
AcDbEntity
  8
2
  6
Continuous
 62
     1
100
AcDbLine
 10
359.6
 20
616.64
 30
0.0
 11
359.6
 21
613.64
 31
0.0
  0
ARC
  5
1E4
330
1F
100
AcDbEntity
  8
2
  6
Continuous
 62
     1
100
AcDbCircle
 10
360.1
 20
616.64
 30
0.0
 40
0.5
100
AcDbArc
 50
90.0
 51
180.0
  0
LINE
  5
1E5
330
1F
100
AcDbEntity
  8
2
  6
Continuous
 62
     1
100
AcDbLine
 10
360.1
 20
617.14
 30
0.0
 11
386.1
 21
617.14
 31
0.0
  0
LINE
  5
1E6
330
1F
100
AcDbEntity
  8
2
  6
Continuous
 62
     1
100
AcDbLine
 10
386.6
 20
616.64
 30
0.0
 11
386.6
 21
613.64
 31
0.0
  0
ARC
  5
1E7
330
1F
100
AcDbEntity
  8
2
  6
Continuous
 62
     1
100
AcDbCircle
 10
386.1
 20
616.64
 30
0.0
 40
0.5
100
AcDbArc
 50
0.0
 51
90.0
  0
LINE
  5
1E8
330
1F
100
AcDbEntity
  8
2
  6
Continuous
 62
     1
100
AcDbLine
 10
413.6
 20
621.34
 30
0.0
 11
413.6
 21
613.64
 31
0.0
  0
ARC
  5
1E9
330
1F
100
AcDbEntity
  8
2
  6
Continuous
 62
     1
100
AcDbCircle
 10
413.3
 20
621.34
 30
0.0
 40
0.3
100
AcDbArc
 50
0.0
 51
90.0
  0
LINE
  5
1EA
330
1F
100
AcDbEntity
  8
2
  6
Continuous
 62
     1
100
AcDbLine
 10
401.766274292
 20
621.64
 30
0.0
 11
413.3
 21
621.64
 31
0.0
  0
ARC
  5
1EB
330
1F
100
AcDbEntity
  8
2
  6
Continuous
 62
     1
100
AcDbCircle
 10
401.766274292
 20
621.34
 30
0.0
 40
0.3
100
AcDbArc
 50
90.0
 51
147.994616792
  0
LINE
  5
1EC
330
1F
100
AcDbEntity
  8
2
  6
Continuous
 62
     1
100
AcDbLine
 10
399.1
 20
617.553961132
 30
0.0
 11
399.1
 21
613.64
 31
0.0
  0
LINE
  5
1ED
330
1F
100
AcDbEntity
  8
2
  6
Continuous
 62
     1
100
AcDbLine
 10
399.145600509
 20
617.712960814
 30
0.0
 11
401.511874801
 21
621.498999682
 31
0.0
  0
ARC
  5
1EE
330
1F
100
AcDbEntity
  8
2
  6
Continuous
 62
     1
100
AcDbCircle
 10
399.4
 20
617.553961132
 30
0.0
 40
0.3
100
AcDbArc
 50
147.994616792
 51
180.0
  0
LINE
  5
1EF
330
1F
100
AcDbEntity
  8
2
  6
Continuous
 62
     1
100
AcDbLine
 10
292.402
 20
622.985
 30
0.0
 11
284.252
 21
622.985
 31
0.0
  0
LINE
  5
1F0
330
1F
100
AcDbEntity
  8
2
  6
Continuous
 62
     1
100
AcDbLine
 10
292.402
 20
621.985
 30
0.0
 11
284.252
 21
621.985
 31
0.0
  0
LINE
  5
1F1
330
1F
100
AcDbEntity
  8
2
  6
Continuous
 62
     1
100
AcDbLine
 10
292.402
 20
617.985
 30
0.0
 11
284.252
 21
617.985
 31
0.0
  0
LINE
  5
1F2
330
1F
100
AcDbEntity
  8
2
  6
Continuous
 62
     1
100
AcDbLine
 10
284.252
 20
613.64
 30
0.0
 11
284.252
 21
622.985
 31
0.0
  0
ARC
  5
1F3
330
1F
100
AcDbEntity
  8
2
  6
Continuous
 62
     1
100
AcDbCircle
 10
427.75
 20
614.74
 30
0.0
 40
0.5
100
AcDbArc
 50
90.0
 51
180.0
  0
LINE
  5
1F4
330
1F
100
AcDbEntity
  8
2
  6
Continuous
 62
     1
100
AcDbLine
 10
427.25
 20
614.74
 30
0.0
 11
427.25
 21
614.14
 31
0.0
  0
ARC
  5
1F5
330
1F
100
AcDbEntity
  8
2
  6
Continuous
 62
     1
100
AcDbCircle
 10
427.75
 20
614.14
 30
0.0
 40
0.5
100
AcDbArc
 50
180.0
 51
270.0
  0
LINE
  5
1F6
330
1F
100
AcDbEntity
  8
2
  6
Continuous
 62
     1
100
AcDbLine
 10
427.75
 20
615.24
 30
0.0
 11
430.624365644
 21
615.24
 31
0.0
  0
ARC
  5
1F7
330
1F
100
AcDbEntity
  8
2
  6
Continuous
 62
     1
100
AcDbCircle
 10
434.797664294
 20
616.54
 30
0.0
 40
0.5
100
AcDbArc
 50
90.0
 51
138.576334375
  0
ARC
  5
1F8
330
1F
100
AcDbEntity
  8
2
  6
Continuous
 62
     1
100
AcDbCircle
 10
445.8245166
 20
617.54
 30
0.0
 40
0.5
100
AcDbArc
 50
270.0
 51
0.0
  0
LINE
  5
1F9
330
1F
100
AcDbEntity
  8
2
  6
Continuous
 62
     1
100
AcDbLine
 10
446.3245166
 20
618.14
 30
0.0
 11
446.3245166
 21
617.54
 31
0.0
  0
LINE
  5
1FA
330
1F
100
AcDbEntity
  8
2
  6
Continuous
 62
     1
100
AcDbLine
 10
434.075634356
 20
618.64
 30
0.0
 11
445.8245166
 21
618.64
 31
0.0
  0
ARC
  5
1FB
330
1F
100
AcDbEntity
  8
2
  6
Continuous
 62
     1
100
AcDbCircle
 10
445.8245166
 20
618.14
 30
0.0
 40
0.5
100
AcDbArc
 50
0.0
 51
90.0
  0
LINE
  5
1FC
330
1F
100
AcDbEntity
  8
2
  6
Continuous
 62
     1
100
AcDbLine
 10
426.85
 20
615.74
 30
0.0
 11
434.85
 21
615.74
 31
0.0
  0
LINE
  5
1FD
330
1F
100
AcDbEntity
  8
2
  6
Continuous
 62
     1
100
AcDbLine
 10
427.75
 20
615.24
 30
0.0
 11
426.85
 21
615.24
 31
0.0
  0
LINE
  5
1FE
330
1F
100
AcDbEntity
  8
2
  6
Continuous
 62
     1
100
AcDbLine
 10
426.85
 20
615.74
 30
0.0
 11
426.85
 21
615.24
 31
0.0
  0
LINE
  5
1FF
330
1F
100
AcDbEntity
  8
2
  6
Continuous
 62
     1
100
AcDbLine
 10
430.624365644
 20
615.24
 30
0.0
 11
434.85
 21
615.24
 31
0.0
  0
LINE
  5
200
330
1F
100
AcDbEntity
  8
2
  6
Continuous
 62
     1
100
AcDbLine
 10
434.85
 20
615.74
 30
0.0
 11
434.85
 21
615.24
 31
0.0
  0
LINE
  5
201
330
1F
100
AcDbEntity
  8
2
  6
Continuous
 62
     1
100
AcDbLine
 10
427.55
 20
616.74
 30
0.0
 11
434.15
 21
616.74
 31
0.0
  0
LINE
  5
202
330
1F
100
AcDbEntity
  8
2
  6
Continuous
 62
     1
100
AcDbLine
 10
430.452651358
 20
615.74
 30
0.0
 11
431.338365644
 21
616.74
 31
0.0
  0
LINE
  5
203
330
1F
100
AcDbEntity
  8
2
  6
Continuous
 62
     1
100
AcDbLine
 10
434.15
 20
616.561699403
 30
0.0
 11
434.422745367
 21
616.870810819
 31
0.0
  0
LINE
  5
204
330
1F
100
AcDbEntity
  8
2
  6
Continuous
 62
     1
100
AcDbLine
 10
431.72131451
 20
613.809189181
 30
0.0
 11
432.983794644
 21
615.24
 31
0.0
  0
LWPOLYLINE
  5
207
330
1F
100
AcDbEntity
  8
2
  6
Continuous
 62
     1
100
AcDbPolyline
 90
     3
 70
   128
 43
0.0
 10
427.55
 20
615.74
 42
0.0
 10
427.55
 20
618.24
 42
-0.414213562
 10
428.55
 20
619.24
 42
0.0
  0
LINE
  5
208
330
1F
100
AcDbEntity
  8
2
  6
Continuous
 62
     1
100
AcDbLine
 10
434.15
 20
615.74
 30
0.0
 11
434.15
 21
618.24
 31
0.0
  0
LINE
  5
209
330
1F
100
AcDbEntity
  8
2
  6
Continuous
 62
     1
100
AcDbLine
 10
428.55
 20
619.24
 30
0.0
 11
433.15
 21
619.24
 31
0.0
  0
ARC
  5
20A
330
1F
100
AcDbEntity
  8
2
  6
Continuous
 62
     1
100
AcDbCircle
 10
433.15
 20
618.24
 30
0.0
 40
1.0
100
AcDbArc
 50
0.0
 51
90.0
  0
LINE
  5
20B
330
1F
100
AcDbEntity
  8
2
  6
Continuous
 62
     1
100
AcDbLine
 10
434.797664294
 20
617.04
 30
0.0
 11
445.8245166
 21
617.04
 31
0.0
  0
ARC
  5
20C
330
1F
100
AcDbEntity
  8
2
  6
Continuous
 62
     1
100
AcDbCircle
 10
465.95
 20
614.74
 30
0.0
 40
0.5
100
AcDbArc
 50
0.0
 51
90.0
  0
LINE
  5
20D
330
1F
100
AcDbEntity
  8
2
  6
Continuous
 62
     1
100
AcDbLine
 10
466.45
 20
614.74
 30
0.0
 11
466.45
 21
614.14
 31
0.0
  0
ARC
  5
20E
330
1F
100
AcDbEntity
  8
2
  6
Continuous
 62
     1
100
AcDbCircle
 10
465.95
 20
614.14
 30
0.0
 40
0.5
100
AcDbArc
 50
270.0
 51
0.0
  0
LINE
  5
20F
330
1F
100
AcDbEntity
  8
2
  6
Continuous
 62
     1
100
AcDbLine
 10
465.95
 20
615.24
 30
0.0
 11
463.075634356
 21
615.24
 31
0.0
  0
ARC
  5
210
330
1F
100
AcDbEntity
  8
2
  6
Continuous
 62
     1
100
AcDbCircle
 10
458.902335706
 20
616.54
 30
0.0
 40
0.5
100
AcDbArc
 50
41.423665625
 51
90.0
  0
ARC
  5
211
330
1F
100
AcDbEntity
  8
2
  6
Continuous
 62
     1
100
AcDbCircle
 10
447.8754834
 20
617.54
 30
0.0
 40
0.5
100
AcDbArc
 50
180.0
 51
270.0
  0
LINE
  5
212
330
1F
100
AcDbEntity
  8
2
  6
Continuous
 62
     1
100
AcDbLine
 10
447.3754834
 20
618.14
 30
0.0
 11
447.3754834
 21
617.54
 31
0.0
  0
LINE
  5
213
330
1F
100
AcDbEntity
  8
2
  6
Continuous
 62
     1
100
AcDbLine
 10
459.624365644
 20
618.64
 30
0.0
 11
447.8754834
 21
618.64
 31
0.0
  0
ARC
  5
214
330
1F
100
AcDbEntity
  8
2
  6
Continuous
 62
     1
100
AcDbCircle
 10
447.8754834
 20
618.14
 30
0.0
 40
0.5
100
AcDbArc
 50
90.0
 51
180.0
  0
LINE
  5
215
330
1F
100
AcDbEntity
  8
2
  6
Continuous
 62
     1
100
AcDbLine
 10
466.85
 20
615.74
 30
0.0
 11
458.85
 21
615.74
 31
0.0
  0
LINE
  5
216
330
1F
100
AcDbEntity
  8
2
  6
Continuous
 62
     1
100
AcDbLine
 10
465.95
 20
615.24
 30
0.0
 11
466.85
 21
615.24
 31
0.0
  0
LINE
  5
217
330
1F
100
AcDbEntity
  8
2
  6
Continuous
 62
     1
100
AcDbLine
 10
466.85
 20
615.74
 30
0.0
 11
466.85
 21
615.24
 31
0.0
  0
LINE
  5
218
330
1F
100
AcDbEntity
  8
2
  6
Continuous
 62
     1
100
AcDbLine
 10
463.075634356
 20
615.24
 30
0.0
 11
458.85
 21
615.24
 31
0.0
  0
LINE
  5
219
330
1F
100
AcDbEntity
  8
2
  6
Continuous
 62
     1
100
AcDbLine
 10
458.85
 20
615.74
 30
0.0
 11
458.85
 21
615.24
 31
0.0
  0
LINE
  5
21A
330
1F
100
AcDbEntity
  8
2
  6
Continuous
 62
     1
100
AcDbLine
 10
466.15
 20
616.74
 30
0.0
 11
459.55
 21
616.74
 31
0.0
  0
LINE
  5
21B
330
1F
100
AcDbEntity
  8
2
  6
Continuous
 62
     1
100
AcDbLine
 10
463.247348642
 20
615.74
 30
0.0
 11
462.361634356
 21
616.74
 31
0.0
  0
LINE
  5
21C
330
1F
100
AcDbEntity
  8
2
  6
Continuous
 62
     1
100
AcDbLine
 10
459.55
 20
616.561699403
 30
0.0
 11
459.277254633
 21
616.870810819
 31
0.0
  0
LINE
  5
21D
330
1F
100
AcDbEntity
  8
2
  6
Continuous
 62
     1
100
AcDbLine
 10
461.97868549
 20
613.809189181
 30
0.0
 11
460.716205356
 21
615.24
 31
0.0
  0
LWPOLYLINE
  5
220
330
1F
100
AcDbEntity
  8
2
  6
Continuous
 62
     1
100
AcDbPolyline
 90
     3
 70
   128
 43
0.0
 10
466.15
 20
615.74
 42
0.0
 10
466.15
 20
618.24
 42
0.414213562
 10
465.15
 20
619.24
 42
0.0
  0
LINE
  5
221
330
1F
100
AcDbEntity
  8
2
  6
Continuous
 62
     1
100
AcDbLine
 10
459.55
 20
615.74
 30
0.0
 11
459.55
 21
618.24
 31
0.0
  0
LINE
  5
222
330
1F
100
AcDbEntity
  8
2
  6
Continuous
 62
     1
100
AcDbLine
 10
465.15
 20
619.24
 30
0.0
 11
460.55
 21
619.24
 31
0.0
  0
ARC
  5
223
330
1F
100
AcDbEntity
  8
2
  6
Continuous
 62
     1
100
AcDbCircle
 10
460.55
 20
618.24
 30
0.0
 40
1.0
100
AcDbArc
 50
90.0
 51
180.0
  0
LINE
  5
224
330
1F
100
AcDbEntity
  8
2
  6
Continuous
 62
     1
100
AcDbLine
 10
458.902335706
 20
617.04
 30
0.0
 11
447.8754834
 21
617.04
 31
0.0
  0
LINE
  5
225
330
1F
100
AcDbEntity
  8
2
  6
Continuous
 62
     1
100
AcDbLine
 10
434.85
 20
615.44
 30
0.0
 11
458.85
 21
615.44
 31
0.0
  0
LINE
  5
226
330
1F
100
AcDbEntity
  8
2
  6
Continuous
 62
     1
100
AcDbLine
 10
445.8245166
 20
617.04
 30
0.0
 11
447.8754834
 21
617.04
 31
0.0
  0
ARC
  5
227
330
1F
100
AcDbEntity
  8
2
  6
Continuous
 62
     1
100
AcDbCircle
 10
487.75
 20
614.74
 30
0.0
 40
0.5
100
AcDbArc
 50
90.0
 51
180.0
  0
LINE
  5
228
330
1F
100
AcDbEntity
  8
2
  6
Continuous
 62
     1
100
AcDbLine
 10
487.25
 20
614.74
 30
0.0
 11
487.25
 21
614.14
 31
0.0
  0
ARC
  5
229
330
1F
100
AcDbEntity
  8
2
  6
Continuous
 62
     1
100
AcDbCircle
 10
487.75
 20
614.14
 30
0.0
 40
0.5
100
AcDbArc
 50
180.0
 51
270.0
  0
LINE
  5
22A
330
1F
100
AcDbEntity
  8
2
  6
Continuous
 62
     1
100
AcDbLine
 10
487.75
 20
615.24
 30
0.0
 11
490.624365644
 21
615.24
 31
0.0
  0
ARC
  5
22B
330
1F
100
AcDbEntity
  8
2
  6
Continuous
 62
     1
100
AcDbCircle
 10
494.797664294
 20
616.54
 30
0.0
 40
0.5
100
AcDbArc
 50
90.0
 51
138.576334375
  0
ARC
  5
22C
330
1F
100
AcDbEntity
  8
2
  6
Continuous
 62
     1
100
AcDbCircle
 10
505.8245166
 20
617.54
 30
0.0
 40
0.5
100
AcDbArc
 50
270.0
 51
0.0
  0
LINE
  5
22D
330
1F
100
AcDbEntity
  8
2
  6
Continuous
 62
     1
100
AcDbLine
 10
506.3245166
 20
618.14
 30
0.0
 11
506.3245166
 21
617.54
 31
0.0
  0
LINE
  5
22E
330
1F
100
AcDbEntity
  8
2
  6
Continuous
 62
     1
100
AcDbLine
 10
494.075634356
 20
618.64
 30
0.0
 11
505.8245166
 21
618.64
 31
0.0
  0
ARC
  5
22F
330
1F
100
AcDbEntity
  8
2
  6
Continuous
 62
     1
100
AcDbCircle
 10
505.8245166
 20
618.14
 30
0.0
 40
0.5
100
AcDbArc
 50
0.0
 51
90.0
  0
LINE
  5
230
330
1F
100
AcDbEntity
  8
2
  6
Continuous
 62
     1
100
AcDbLine
 10
486.85
 20
615.74
 30
0.0
 11
494.85
 21
615.74
 31
0.0
  0
LINE
  5
231
330
1F
100
AcDbEntity
  8
2
  6
Continuous
 62
     1
100
AcDbLine
 10
487.75
 20
615.24
 30
0.0
 11
486.85
 21
615.24
 31
0.0
  0
LINE
  5
232
330
1F
100
AcDbEntity
  8
2
  6
Continuous
 62
     1
100
AcDbLine
 10
486.85
 20
615.74
 30
0.0
 11
486.85
 21
615.24
 31
0.0
  0
LINE
  5
233
330
1F
100
AcDbEntity
  8
2
  6
Continuous
 62
     1
100
AcDbLine
 10
490.624365644
 20
615.24
 30
0.0
 11
494.85
 21
615.24
 31
0.0
  0
LINE
  5
234
330
1F
100
AcDbEntity
  8
2
  6
Continuous
 62
     1
100
AcDbLine
 10
494.85
 20
615.74
 30
0.0
 11
494.85
 21
615.24
 31
0.0
  0
LINE
  5
235
330
1F
100
AcDbEntity
  8
2
  6
Continuous
 62
     1
100
AcDbLine
 10
487.55
 20
616.74
 30
0.0
 11
494.15
 21
616.74
 31
0.0
  0
LINE
  5
236
330
1F
100
AcDbEntity
  8
2
  6
Continuous
 62
     1
100
AcDbLine
 10
490.452651358
 20
615.74
 30
0.0
 11
491.338365644
 21
616.74
 31
0.0
  0
LINE
  5
237
330
1F
100
AcDbEntity
  8
2
  6
Continuous
 62
     1
100
AcDbLine
 10
494.15
 20
616.561699403
 30
0.0
 11
494.422745367
 21
616.870810819
 31
0.0
  0
LINE
  5
238
330
1F
100
AcDbEntity
  8
2
  6
Continuous
 62
     1
100
AcDbLine
 10
491.72131451
 20
613.809189181
 30
0.0
 11
492.983794644
 21
615.24
 31
0.0
  0
LWPOLYLINE
  5
23B
330
1F
100
AcDbEntity
  8
2
  6
Continuous
 62
     1
100
AcDbPolyline
 90
     3
 70
   128
 43
0.0
 10
487.55
 20
615.74
 42
0.0
 10
487.55
 20
618.24
 42
-0.414213562
 10
488.55
 20
619.24
 42
0.0
  0
LINE
  5
23C
330
1F
100
AcDbEntity
  8
2
  6
Continuous
 62
     1
100
AcDbLine
 10
494.15
 20
615.74
 30
0.0
 11
494.15
 21
618.24
 31
0.0
  0
LINE
  5
23D
330
1F
100
AcDbEntity
  8
2
  6
Continuous
 62
     1
100
AcDbLine
 10
488.55
 20
619.24
 30
0.0
 11
493.15
 21
619.24
 31
0.0
  0
ARC
  5
23E
330
1F
100
AcDbEntity
  8
2
  6
Continuous
 62
     1
100
AcDbCircle
 10
493.15
 20
618.24
 30
0.0
 40
1.0
100
AcDbArc
 50
0.0
 51
90.0
  0
LINE
  5
23F
330
1F
100
AcDbEntity
  8
2
  6
Continuous
 62
     1
100
AcDbLine
 10
494.797664294
 20
617.04
 30
0.0
 11
505.8245166
 21
617.04
 31
0.0
  0
ARC
  5
240
330
1F
100
AcDbEntity
  8
2
  6
Continuous
 62
     1
100
AcDbCircle
 10
525.95
 20
614.74
 30
0.0
 40
0.5
100
AcDbArc
 50
0.0
 51
90.0
  0
LINE
  5
241
330
1F
100
AcDbEntity
  8
2
  6
Continuous
 62
     1
100
AcDbLine
 10
526.45
 20
614.74
 30
0.0
 11
526.45
 21
614.14
 31
0.0
  0
ARC
  5
242
330
1F
100
AcDbEntity
  8
2
  6
Continuous
 62
     1
100
AcDbCircle
 10
525.95
 20
614.14
 30
0.0
 40
0.5
100
AcDbArc
 50
270.0
 51
0.0
  0
LINE
  5
243
330
1F
100
AcDbEntity
  8
2
  6
Continuous
 62
     1
100
AcDbLine
 10
525.95
 20
615.24
 30
0.0
 11
523.075634356
 21
615.24
 31
0.0
  0
ARC
  5
244
330
1F
100
AcDbEntity
  8
2
  6
Continuous
 62
     1
100
AcDbCircle
 10
518.902335706
 20
616.54
 30
0.0
 40
0.5
100
AcDbArc
 50
41.423665625
 51
90.0
  0
ARC
  5
245
330
1F
100
AcDbEntity
  8
2
  6
Continuous
 62
     1
100
AcDbCircle
 10
507.8754834
 20
617.54
 30
0.0
 40
0.5
100
AcDbArc
 50
180.0
 51
270.0
  0
LINE
  5
246
330
1F
100
AcDbEntity
  8
2
  6
Continuous
 62
     1
100
AcDbLine
 10
507.3754834
 20
618.14
 30
0.0
 11
507.3754834
 21
617.54
 31
0.0
  0
LINE
  5
247
330
1F
100
AcDbEntity
  8
2
  6
Continuous
 62
     1
100
AcDbLine
 10
519.624365644
 20
618.64
 30
0.0
 11
507.8754834
 21
618.64
 31
0.0
  0
ARC
  5
248
330
1F
100
AcDbEntity
  8
2
  6
Continuous
 62
     1
100
AcDbCircle
 10
507.8754834
 20
618.14
 30
0.0
 40
0.5
100
AcDbArc
 50
90.0
 51
180.0
  0
LINE
  5
249
330
1F
100
AcDbEntity
  8
2
  6
Continuous
 62
     1
100
AcDbLine
 10
526.85
 20
615.74
 30
0.0
 11
518.85
 21
615.74
 31
0.0
  0
LINE
  5
24A
330
1F
100
AcDbEntity
  8
2
  6
Continuous
 62
     1
100
AcDbLine
 10
525.95
 20
615.24
 30
0.0
 11
526.85
 21
615.24
 31
0.0
  0
LINE
  5
24B
330
1F
100
AcDbEntity
  8
2
  6
Continuous
 62
     1
100
AcDbLine
 10
526.85
 20
615.74
 30
0.0
 11
526.85
 21
615.24
 31
0.0
  0
LINE
  5
24C
330
1F
100
AcDbEntity
  8
2
  6
Continuous
 62
     1
100
AcDbLine
 10
523.075634356
 20
615.24
 30
0.0
 11
518.85
 21
615.24
 31
0.0
  0
LINE
  5
24D
330
1F
100
AcDbEntity
  8
2
  6
Continuous
 62
     1
100
AcDbLine
 10
518.85
 20
615.74
 30
0.0
 11
518.85
 21
615.24
 31
0.0
  0
LINE
  5
24E
330
1F
100
AcDbEntity
  8
2
  6
Continuous
 62
     1
100
AcDbLine
 10
526.15
 20
616.74
 30
0.0
 11
519.55
 21
616.74
 31
0.0
  0
LINE
  5
24F
330
1F
100
AcDbEntity
  8
2
  6
Continuous
 62
     1
100
AcDbLine
 10
523.247348642
 20
615.74
 30
0.0
 11
522.361634356
 21
616.74
 31
0.0
  0
LINE
  5
250
330
1F
100
AcDbEntity
  8
2
  6
Continuous
 62
     1
100
AcDbLine
 10
519.55
 20
616.561699403
 30
0.0
 11
519.277254633
 21
616.870810819
 31
0.0
  0
LINE
  5
251
330
1F
100
AcDbEntity
  8
2
  6
Continuous
 62
     1
100
AcDbLine
 10
521.97868549
 20
613.809189181
 30
0.0
 11
520.716205356
 21
615.24
 31
0.0
  0
LWPOLYLINE
  5
254
330
1F
100
AcDbEntity
  8
2
  6
Continuous
 62
     1
100
AcDbPolyline
 90
     3
 70
   128
 43
0.0
 10
526.15
 20
615.74
 42
0.0
 10
526.15
 20
618.24
 42
0.414213562
 10
525.15
 20
619.24
 42
0.0
  0
LINE
  5
255
330
1F
100
AcDbEntity
  8
2
  6
Continuous
 62
     1
100
AcDbLine
 10
519.55
 20
615.74
 30
0.0
 11
519.55
 21
618.24
 31
0.0
  0
LINE
  5
256
330
1F
100
AcDbEntity
  8
2
  6
Continuous
 62
     1
100
AcDbLine
 10
525.15
 20
619.24
 30
0.0
 11
520.55
 21
619.24
 31
0.0
  0
ARC
  5
257
330
1F
100
AcDbEntity
  8
2
  6
Continuous
 62
     1
100
AcDbCircle
 10
520.55
 20
618.24
 30
0.0
 40
1.0
100
AcDbArc
 50
90.0
 51
180.0
  0
LINE
  5
258
330
1F
100
AcDbEntity
  8
2
  6
Continuous
 62
     1
100
AcDbLine
 10
518.902335706
 20
617.04
 30
0.0
 11
507.8754834
 21
617.04
 31
0.0
  0
LINE
  5
259
330
1F
100
AcDbEntity
  8
2
  6
Continuous
 62
     1
100
AcDbLine
 10
494.85
 20
615.44
 30
0.0
 11
518.85
 21
615.44
 31
0.0
  0
LINE
  5
25A
330
1F
100
AcDbEntity
  8
2
  6
Continuous
 62
     1
100
AcDbLine
 10
505.8245166
 20
617.04
 30
0.0
 11
507.8754834
 21
617.04
 31
0.0
  0
ARC
  5
25B
330
1F
100
AcDbEntity
  8
2
  6
Continuous
 62
     1
100
AcDbCircle
 10
547.75
 20
614.74
 30
0.0
 40
0.5
100
AcDbArc
 50
90.0
 51
180.0
  0
LINE
  5
25C
330
1F
100
AcDbEntity
  8
2
  6
Continuous
 62
     1
100
AcDbLine
 10
547.25
 20
614.74
 30
0.0
 11
547.25
 21
614.14
 31
0.0
  0
ARC
  5
25D
330
1F
100
AcDbEntity
  8
2
  6
Continuous
 62
     1
100
AcDbCircle
 10
547.75
 20
614.14
 30
0.0
 40
0.5
100
AcDbArc
 50
180.0
 51
270.0
  0
LINE
  5
25E
330
1F
100
AcDbEntity
  8
2
  6
Continuous
 62
     1
100
AcDbLine
 10
547.75
 20
615.24
 30
0.0
 11
550.624365644
 21
615.24
 31
0.0
  0
ARC
  5
25F
330
1F
100
AcDbEntity
  8
2
  6
Continuous
 62
     1
100
AcDbCircle
 10
554.797664294
 20
616.54
 30
0.0
 40
0.5
100
AcDbArc
 50
90.0
 51
138.576334375
  0
ARC
  5
260
330
1F
100
AcDbEntity
  8
2
  6
Continuous
 62
     1
100
AcDbCircle
 10
565.8245166
 20
617.54
 30
0.0
 40
0.5
100
AcDbArc
 50
270.0
 51
0.0
  0
LINE
  5
261
330
1F
100
AcDbEntity
  8
2
  6
Continuous
 62
     1
100
AcDbLine
 10
566.3245166
 20
618.14
 30
0.0
 11
566.3245166
 21
617.54
 31
0.0
  0
LINE
  5
262
330
1F
100
AcDbEntity
  8
2
  6
Continuous
 62
     1
100
AcDbLine
 10
554.075634356
 20
618.64
 30
0.0
 11
565.8245166
 21
618.64
 31
0.0
  0
ARC
  5
263
330
1F
100
AcDbEntity
  8
2
  6
Continuous
 62
     1
100
AcDbCircle
 10
565.8245166
 20
618.14
 30
0.0
 40
0.5
100
AcDbArc
 50
0.0
 51
90.0
  0
LINE
  5
264
330
1F
100
AcDbEntity
  8
2
  6
Continuous
 62
     1
100
AcDbLine
 10
546.85
 20
615.74
 30
0.0
 11
554.85
 21
615.74
 31
0.0
  0
LINE
  5
265
330
1F
100
AcDbEntity
  8
2
  6
Continuous
 62
     1
100
AcDbLine
 10
547.75
 20
615.24
 30
0.0
 11
546.85
 21
615.24
 31
0.0
  0
LINE
  5
266
330
1F
100
AcDbEntity
  8
2
  6
Continuous
 62
     1
100
AcDbLine
 10
546.85
 20
615.74
 30
0.0
 11
546.85
 21
615.24
 31
0.0
  0
LINE
  5
267
330
1F
100
AcDbEntity
  8
2
  6
Continuous
 62
     1
100
AcDbLine
 10
550.624365644
 20
615.24
 30
0.0
 11
554.85
 21
615.24
 31
0.0
  0
LINE
  5
268
330
1F
100
AcDbEntity
  8
2
  6
Continuous
 62
     1
100
AcDbLine
 10
554.85
 20
615.74
 30
0.0
 11
554.85
 21
615.24
 31
0.0
  0
LINE
  5
269
330
1F
100
AcDbEntity
  8
2
  6
Continuous
 62
     1
100
AcDbLine
 10
547.55
 20
616.74
 30
0.0
 11
554.15
 21
616.74
 31
0.0
  0
LINE
  5
26A
330
1F
100
AcDbEntity
  8
2
  6
Continuous
 62
     1
100
AcDbLine
 10
550.452651358
 20
615.74
 30
0.0
 11
551.338365644
 21
616.74
 31
0.0
  0
LINE
  5
26B
330
1F
100
AcDbEntity
  8
2
  6
Continuous
 62
     1
100
AcDbLine
 10
554.15
 20
616.561699403
 30
0.0
 11
554.422745367
 21
616.870810819
 31
0.0
  0
LINE
  5
26C
330
1F
100
AcDbEntity
  8
2
  6
Continuous
 62
     1
100
AcDbLine
 10
551.72131451
 20
613.809189181
 30
0.0
 11
552.983794644
 21
615.24
 31
0.0
  0
LWPOLYLINE
  5
26F
330
1F
100
AcDbEntity
  8
2
  6
Continuous
 62
     1
100
AcDbPolyline
 90
     3
 70
   128
 43
0.0
 10
547.55
 20
615.74
 42
0.0
 10
547.55
 20
618.24
 42
-0.414213562
 10
548.55
 20
619.24
 42
0.0
  0
LINE
  5
270
330
1F
100
AcDbEntity
  8
2
  6
Continuous
 62
     1
100
AcDbLine
 10
554.15
 20
615.74
 30
0.0
 11
554.15
 21
618.24
 31
0.0
  0
LINE
  5
271
330
1F
100
AcDbEntity
  8
2
  6
Continuous
 62
     1
100
AcDbLine
 10
548.55
 20
619.24
 30
0.0
 11
553.15
 21
619.24
 31
0.0
  0
ARC
  5
272
330
1F
100
AcDbEntity
  8
2
  6
Continuous
 62
     1
100
AcDbCircle
 10
553.15
 20
618.24
 30
0.0
 40
1.0
100
AcDbArc
 50
0.0
 51
90.0
  0
LINE
  5
273
330
1F
100
AcDbEntity
  8
2
  6
Continuous
 62
     1
100
AcDbLine
 10
554.797664294
 20
617.04
 30
0.0
 11
565.8245166
 21
617.04
 31
0.0
  0
ARC
  5
274
330
1F
100
AcDbEntity
  8
2
  6
Continuous
 62
     1
100
AcDbCircle
 10
585.95
 20
614.74
 30
0.0
 40
0.5
100
AcDbArc
 50
0.0
 51
90.0
  0
LINE
  5
275
330
1F
100
AcDbEntity
  8
2
  6
Continuous
 62
     1
100
AcDbLine
 10
586.45
 20
614.74
 30
0.0
 11
586.45
 21
614.14
 31
0.0
  0
ARC
  5
276
330
1F
100
AcDbEntity
  8
2
  6
Continuous
 62
     1
100
AcDbCircle
 10
585.95
 20
614.14
 30
0.0
 40
0.5
100
AcDbArc
 50
270.0
 51
0.0
  0
LINE
  5
277
330
1F
100
AcDbEntity
  8
2
  6
Continuous
 62
     1
100
AcDbLine
 10
585.95
 20
615.24
 30
0.0
 11
583.075634356
 21
615.24
 31
0.0
  0
ARC
  5
278
330
1F
100
AcDbEntity
  8
2
  6
Continuous
 62
     1
100
AcDbCircle
 10
578.902335706
 20
616.54
 30
0.0
 40
0.5
100
AcDbArc
 50
41.423665625
 51
90.0
  0
ARC
  5
279
330
1F
100
AcDbEntity
  8
2
  6
Continuous
 62
     1
100
AcDbCircle
 10
567.8754834
 20
617.54
 30
0.0
 40
0.5
100
AcDbArc
 50
180.0
 51
270.0
  0
LINE
  5
27A
330
1F
100
AcDbEntity
  8
2
  6
Continuous
 62
     1
100
AcDbLine
 10
567.3754834
 20
618.14
 30
0.0
 11
567.3754834
 21
617.54
 31
0.0
  0
LINE
  5
27B
330
1F
100
AcDbEntity
  8
2
  6
Continuous
 62
     1
100
AcDbLine
 10
579.624365644
 20
618.64
 30
0.0
 11
567.8754834
 21
618.64
 31
0.0
  0
ARC
  5
27C
330
1F
100
AcDbEntity
  8
2
  6
Continuous
 62
     1
100
AcDbCircle
 10
567.8754834
 20
618.14
 30
0.0
 40
0.5
100
AcDbArc
 50
90.0
 51
180.0
  0
LINE
  5
27D
330
1F
100
AcDbEntity
  8
2
  6
Continuous
 62
     1
100
AcDbLine
 10
586.85
 20
615.74
 30
0.0
 11
578.85
 21
615.74
 31
0.0
  0
LINE
  5
27E
330
1F
100
AcDbEntity
  8
2
  6
Continuous
 62
     1
100
AcDbLine
 10
585.95
 20
615.24
 30
0.0
 11
586.85
 21
615.24
 31
0.0
  0
LINE
  5
27F
330
1F
100
AcDbEntity
  8
2
  6
Continuous
 62
     1
100
AcDbLine
 10
586.85
 20
615.74
 30
0.0
 11
586.85
 21
615.24
 31
0.0
  0
LINE
  5
280
330
1F
100
AcDbEntity
  8
2
  6
Continuous
 62
     1
100
AcDbLine
 10
583.075634356
 20
615.24
 30
0.0
 11
578.85
 21
615.24
 31
0.0
  0
LINE
  5
281
330
1F
100
AcDbEntity
  8
2
  6
Continuous
 62
     1
100
AcDbLine
 10
578.85
 20
615.74
 30
0.0
 11
578.85
 21
615.24
 31
0.0
  0
LINE
  5
282
330
1F
100
AcDbEntity
  8
2
  6
Continuous
 62
     1
100
AcDbLine
 10
586.15
 20
616.74
 30
0.0
 11
579.55
 21
616.74
 31
0.0
  0
LINE
  5
283
330
1F
100
AcDbEntity
  8
2
  6
Continuous
 62
     1
100
AcDbLine
 10
583.247348642
 20
615.74
 30
0.0
 11
582.361634356
 21
616.74
 31
0.0
  0
LINE
  5
284
330
1F
100
AcDbEntity
  8
2
  6
Continuous
 62
     1
100
AcDbLine
 10
579.55
 20
616.561699403
 30
0.0
 11
579.277254633
 21
616.870810819
 31
0.0
  0
LINE
  5
285
330
1F
100
AcDbEntity
  8
2
  6
Continuous
 62
     1
100
AcDbLine
 10
581.97868549
 20
613.809189181
 30
0.0
 11
580.716205356
 21
615.24
 31
0.0
  0
LWPOLYLINE
  5
288
330
1F
100
AcDbEntity
  8
2
  6
Continuous
 62
     1
100
AcDbPolyline
 90
     3
 70
   128
 43
0.0
 10
586.15
 20
615.74
 42
0.0
 10
586.15
 20
618.24
 42
0.414213562
 10
585.15
 20
619.24
 42
0.0
  0
LINE
  5
289
330
1F
100
AcDbEntity
  8
2
  6
Continuous
 62
     1
100
AcDbLine
 10
579.55
 20
615.74
 30
0.0
 11
579.55
 21
618.24
 31
0.0
  0
LINE
  5
28A
330
1F
100
AcDbEntity
  8
2
  6
Continuous
 62
     1
100
AcDbLine
 10
585.15
 20
619.24
 30
0.0
 11
580.55
 21
619.24
 31
0.0
  0
ARC
  5
28B
330
1F
100
AcDbEntity
  8
2
  6
Continuous
 62
     1
100
AcDbCircle
 10
580.55
 20
618.24
 30
0.0
 40
1.0
100
AcDbArc
 50
90.0
 51
180.0
  0
LINE
  5
28C
330
1F
100
AcDbEntity
  8
2
  6
Continuous
 62
     1
100
AcDbLine
 10
578.902335706
 20
617.04
 30
0.0
 11
567.8754834
 21
617.04
 31
0.0
  0
LINE
  5
28D
330
1F
100
AcDbEntity
  8
2
  6
Continuous
 62
     1
100
AcDbLine
 10
554.85
 20
615.44
 30
0.0
 11
578.85
 21
615.44
 31
0.0
  0
LINE
  5
28E
330
1F
100
AcDbEntity
  8
2
  6
Continuous
 62
     1
100
AcDbLine
 10
565.8245166
 20
617.04
 30
0.0
 11
567.8754834
 21
617.04
 31
0.0
  0
LINE
  5
28F
330
1F
100
AcDbEntity
  8
2
  6
Continuous
 62
     1
100
AcDbLine
 10
649.85
 20
635.64
 30
0.0
 11
649.85
 21
637.14
 31
0.0
  0
LINE
  5
290
330
1F
100
AcDbEntity
  8
2
  6
Continuous
 62
     1
100
AcDbLine
 10
616.85
 20
615.64
 30
0.0
 11
649.85
 21
615.64
 31
0.0
  0
LINE
  5
291
330
1F
100
AcDbEntity
  8
2
  6
Continuous
 62
     1
100
AcDbLine
 10
631.85
 20
615.64
 30
0.0
 11
631.85
 21
626.64
 31
0.0
  0
LINE
  5
292
330
1F
100
AcDbEntity
  8
2
  6
Continuous
 62
     1
100
AcDbLine
 10
634.85
 20
626.64
 30
0.0
 11
634.85
 21
615.64
 31
0.0
  0
LINE
  5
293
330
1F
100
AcDbEntity
  8
2
  6
Continuous
 62
     1
100
AcDbLine
 10
616.85
 20
623.64
 30
0.0
 11
631.85
 21
623.64
 31
0.0
  0
LINE
  5
294
330
1F
100
AcDbEntity
  8
2
  6
Continuous
 62
     1
100
AcDbLine
 10
634.85
 20
623.64
 30
0.0
 11
649.85
 21
623.64
 31
0.0
  0
LINE
  5
295
330
1F
100
AcDbEntity
  8
2
  6
Continuous
 62
     1
100
AcDbLine
 10
617.85
 20
623.64
 30
0.0
 11
619.1625
 21
626.64
 31
0.0
  0
LINE
  5
296
330
1F
100
AcDbEntity
  8
2
  6
Continuous
 62
     1
100
AcDbLine
 10
629.5375
 20
626.64
 30
0.0
 11
630.85
 21
623.64
 31
0.0
  0
LINE
  5
297
330
1F
100
AcDbEntity
  8
2
  6
Continuous
 62
     1
100
AcDbLine
 10
619.1625
 20
626.64
 30
0.0
 11
629.5375
 21
626.64
 31
0.0
  0
LINE
  5
298
330
1F
100
AcDbEntity
  8
2
  6
Continuous
 62
     1
100
AcDbLine
 10
619.1625
 20
626.64
 30
0.0
 11
619.1625
 21
627.34
 31
0.0
  0
LINE
  5
299
330
1F
100
AcDbEntity
  8
2
  6
Continuous
 62
     1
100
AcDbLine
 10
619.1625
 20
627.34
 30
0.0
 11
629.5375
 21
627.34
 31
0.0
  0
LINE
  5
29A
330
1F
100
AcDbEntity
  8
2
  6
Continuous
 62
     1
100
AcDbLine
 10
629.5375
 20
626.64
 30
0.0
 11
629.5375
 21
627.34
 31
0.0
  0
LINE
  5
29B
330
1F
100
AcDbEntity
  8
2
  6
Continuous
 62
     1
100
AcDbLine
 10
616.85
 20
637.64
 30
0.0
 11
616.85
 21
635.64
 31
0.0
  0
LINE
  5
29C
330
1F
100
AcDbEntity
  8
2
  6
Continuous
 62
     1
100
AcDbLine
 10
616.85
 20
637.64
 30
0.0
 11
616.85
 21
615.64
 31
0.0
  0
LINE
  5
29D
330
1F
100
AcDbEntity
  8
2
  6
Continuous
 62
     1
100
AcDbLine
 10
649.85
 20
615.64
 30
0.0
 11
649.85
 21
637.64
 31
0.0
  0
LINE
  5
29E
330
1F
100
AcDbEntity
  8
2
  6
Continuous
 62
     1
100
AcDbLine
 10
602.85
 20
637.64
 30
0.0
 11
602.85
 21
613.64
 31
0.0
  0
LINE
  5
29F
330
1F
100
AcDbEntity
  8
2
  6
Continuous
 62
     1
100
AcDbLine
 10
663.85
 20
613.64
 30
0.0
 11
663.85
 21
637.64
 31
0.0
  0
LINE
  5
2A0
330
1F
100
AcDbEntity
  8
2
  6
Continuous
 62
     1
100
AcDbLine
 10
649.85
 20
637.64
 30
0.0
 11
663.85
 21
637.64
 31
0.0
  0
LINE
  5
2A1
330
1F
100
AcDbEntity
  8
2
  6
Continuous
 62
     1
100
AcDbLine
 10
602.85
 20
637.64
 30
0.0
 11
616.85
 21
637.64
 31
0.0
  0
LINE
  5
2A2
330
1F
100
AcDbEntity
  8
2
  6
Continuous
 62
     1
100
AcDbLine
 10
631.85
 20
626.64
 30
0.0
 11
631.85
 21
635.64
 31
0.0
  0
LWPOLYLINE
  5
2A4
330
1F
100
AcDbEntity
  8
2
  6
Continuous
 62
     1
100
AcDbPolyline
 90
     3
 70
   128
 43
0.0
 10
631.85
 20
635.64
 10
634.85
 20
635.64
 10
634.85
 20
626.64
  0
LINE
  5
2A5
330
1F
100
AcDbEntity
  8
2
  6
Continuous
 62
     1
100
AcDbLine
 10
628.6
 20
628.34
 30
0.0
 11
628.6
 21
627.34
 31
0.0
  0
LINE
  5
2A6
330
1F
100
AcDbEntity
  8
2
  6
Continuous
 62
     1
100
AcDbLine
 10
628.6
 20
628.34
 30
0.0
 11
620.1
 21
628.34
 31
0.0
  0
LINE
  5
2A7
330
1F
100
AcDbEntity
  8
2
  6
Continuous
 62
     1
100
AcDbLine
 10
620.1
 20
628.34
 30
0.0
 11
620.1
 21
627.34
 31
0.0
  0
LINE
  5
2A8
330
1F
100
AcDbEntity
  8
2
  6
Continuous
 62
     1
100
AcDbLine
 10
623.85
 20
628.34
 30
0.0
 11
622.85
 21
627.34
 31
0.0
  0
LINE
  5
2A9
330
1F
100
AcDbEntity
  8
2
  6
Continuous
 62
     1
100
AcDbLine
 10
625.35
 20
628.34
 30
0.0
 11
624.35
 21
627.34
 31
0.0
  0
LINE
  5
2AA
330
1F
100
AcDbEntity
  8
2
  6
Continuous
 62
     1
100
AcDbLine
 10
620.1
 20
627.34
 30
0.0
 11
628.6
 21
627.34
 31
0.0
  0
LINE
  5
2AB
330
1F
100
AcDbEntity
  8
2
  6
Continuous
 62
     1
100
AcDbLine
 10
620.1
 20
629.84
 30
0.0
 11
620.1
 21
628.34
 31
0.0
  0
ARC
  5
2AC
330
1F
100
AcDbEntity
  8
2
  6
Continuous
 62
     1
100
AcDbCircle
 10
621.6
 20
629.84
 30
0.0
 40
1.5
100
AcDbArc
 50
90.0
 51
180.0
  0
LINE
  5
2AD
330
1F
100
AcDbEntity
  8
2
  6
Continuous
 62
     1
100
AcDbLine
 10
628.6
 20
629.84
 30
0.0
 11
628.6
 21
628.34
 31
0.0
  0
LINE
  5
2AE
330
1F
100
AcDbEntity
  8
2
  6
Continuous
 62
     1
100
AcDbLine
 10
627.1
 20
631.34
 30
0.0
 11
621.6
 21
631.34
 31
0.0
  0
ARC
  5
2AF
330
1F
100
AcDbEntity
  8
2
  6
Continuous
 62
     1
100
AcDbCircle
 10
627.1
 20
629.84
 30
0.0
 40
1.5
100
AcDbArc
 50
0.0
 51
90.0
  0
LINE
  5
2B0
330
1F
100
AcDbEntity
  8
2
  6
Continuous
 62
     1
100
AcDbLine
 10
635.85
 20
623.64
 30
0.0
 11
637.1625
 21
626.64
 31
0.0
  0
LINE
  5
2B1
330
1F
100
AcDbEntity
  8
2
  6
Continuous
 62
     1
100
AcDbLine
 10
647.5375
 20
626.64
 30
0.0
 11
648.85
 21
623.64
 31
0.0
  0
LINE
  5
2B2
330
1F
100
AcDbEntity
  8
2
  6
Continuous
 62
     1
100
AcDbLine
 10
637.1625
 20
626.64
 30
0.0
 11
647.5375
 21
626.64
 31
0.0
  0
LINE
  5
2B3
330
1F
100
AcDbEntity
  8
2
  6
Continuous
 62
     1
100
AcDbLine
 10
637.1625
 20
626.64
 30
0.0
 11
637.1625
 21
627.34
 31
0.0
  0
LINE
  5
2B4
330
1F
100
AcDbEntity
  8
2
  6
Continuous
 62
     1
100
AcDbLine
 10
637.1625
 20
627.34
 30
0.0
 11
647.5375
 21
627.34
 31
0.0
  0
LINE
  5
2B5
330
1F
100
AcDbEntity
  8
2
  6
Continuous
 62
     1
100
AcDbLine
 10
647.5375
 20
626.64
 30
0.0
 11
647.5375
 21
627.34
 31
0.0
  0
LINE
  5
2B6
330
1F
100
AcDbEntity
  8
2
  6
Continuous
 62
     1
100
AcDbLine
 10
646.6
 20
628.34
 30
0.0
 11
646.6
 21
627.34
 31
0.0
  0
LINE
  5
2B7
330
1F
100
AcDbEntity
  8
2
  6
Continuous
 62
     1
100
AcDbLine
 10
646.6
 20
628.34
 30
0.0
 11
638.1
 21
628.34
 31
0.0
  0
LINE
  5
2B8
330
1F
100
AcDbEntity
  8
2
  6
Continuous
 62
     1
100
AcDbLine
 10
638.1
 20
628.34
 30
0.0
 11
638.1
 21
627.34
 31
0.0
  0
LINE
  5
2B9
330
1F
100
AcDbEntity
  8
2
  6
Continuous
 62
     1
100
AcDbLine
 10
641.85
 20
628.34
 30
0.0
 11
640.85
 21
627.34
 31
0.0
  0
LINE
  5
2BA
330
1F
100
AcDbEntity
  8
2
  6
Continuous
 62
     1
100
AcDbLine
 10
643.35
 20
628.34
 30
0.0
 11
642.35
 21
627.34
 31
0.0
  0
LINE
  5
2BB
330
1F
100
AcDbEntity
  8
2
  6
Continuous
 62
     1
100
AcDbLine
 10
638.1
 20
627.34
 30
0.0
 11
646.6
 21
627.34
 31
0.0
  0
LINE
  5
2BC
330
1F
100
AcDbEntity
  8
2
  6
Continuous
 62
     1
100
AcDbLine
 10
638.1
 20
629.84
 30
0.0
 11
638.1
 21
628.34
 31
0.0
  0
ARC
  5
2BD
330
1F
100
AcDbEntity
  8
2
  6
Continuous
 62
     1
100
AcDbCircle
 10
639.6
 20
629.84
 30
0.0
 40
1.5
100
AcDbArc
 50
90.0
 51
180.0
  0
LINE
  5
2BE
330
1F
100
AcDbEntity
  8
2
  6
Continuous
 62
     1
100
AcDbLine
 10
646.6
 20
629.84
 30
0.0
 11
646.6
 21
628.34
 31
0.0
  0
LINE
  5
2BF
330
1F
100
AcDbEntity
  8
2
  6
Continuous
 62
     1
100
AcDbLine
 10
645.1
 20
631.34
 30
0.0
 11
639.6
 21
631.34
 31
0.0
  0
ARC
  5
2C0
330
1F
100
AcDbEntity
  8
2
  6
Continuous
 62
     1
100
AcDbCircle
 10
645.1
 20
629.84
 30
0.0
 40
1.5
100
AcDbArc
 50
0.0
 51
90.0
  0
LINE
  5
2C1
330
1F
100
AcDbEntity
  8
2
  6
Continuous
 62
     1
100
AcDbLine
 10
602.85
 20
638.64
 30
0.0
 11
663.85
 21
638.64
 31
0.0
  0
LINE
  5
2C2
330
1F
100
AcDbEntity
  8
2
  6
Continuous
 62
     1
100
AcDbLine
 10
602.85
 20
637.64
 30
0.0
 11
602.85
 21
638.64
 31
0.0
  0
LINE
  5
2C3
330
1F
100
AcDbEntity
  8
2
  6
Continuous
 62
     1
100
AcDbLine
 10
663.85
 20
637.64
 30
0.0
 11
663.85
 21
638.64
 31
0.0
  0
LINE
  5
2C4
330
1F
100
AcDbEntity
  8
2
  6
Continuous
 62
     1
100
AcDbLine
 10
649.85
 20
637.64
 30
0.0
 11
616.85
 21
637.64
 31
0.0
  0
LWPOLYLINE
  5
2C6
330
1F
100
AcDbEntity
  8
2
  6
Continuous
 62
     1
100
AcDbPolyline
 90
     4
 70
   128
 43
0.0
 10
612.85
 20
638.64
 10
612.85
 20
639.14
 10
604.85
 20
639.14
 10
604.85
 20
638.64
  0
LINE
  5
2C7
330
1F
100
AcDbEntity
  8
2
  6
Continuous
 62
     1
100
AcDbLine
 10
611.85
 20
639.84
 30
0.0
 11
611.85
 21
639.14
 31
0.0
  0
LWPOLYLINE
  5
2C9
330
1F
100
AcDbEntity
  8
2
  6
Continuous
 62
     1
100
AcDbPolyline
 90
     3
 70
   128
 43
0.0
 10
605.85
 20
639.14
 10
605.85
 20
639.84
 10
611.85
 20
639.84
  0
LINE
  5
2CA
330
1F
100
AcDbEntity
  8
2
  6
Continuous
 62
     1
100
AcDbLine
 10
609.25
 20
639.14
 30
0.0
 11
608.45
 21
639.84
 31
0.0
  0
ARC
  5
2CB
330
1F
100
AcDbEntity
  8
2
  6
Continuous
 62
     1
100
AcDbCircle
 10
607.85
 20
639.84
 30
0.0
 40
2.0
100
AcDbArc
 50
90.0
 51
180.0
  0
ARC
  5
2CC
330
1F
100
AcDbEntity
  8
2
  6
Continuous
 62
     1
100
AcDbCircle
 10
609.85
 20
639.84
 30
0.0
 40
2.0
100
AcDbArc
 50
0.0
 51
90.0
  0
LINE
  5
2CD
330
1F
100
AcDbEntity
  8
2
  6
Continuous
 62
     1
100
AcDbLine
 10
609.85
 20
641.84
 30
0.0
 11
607.85
 21
641.84
 31
0.0
  0
LINE
  5
2CE
330
1F
100
AcDbEntity
  8
2
  6
Continuous
 62
     1
100
AcDbLine
 10
608.85
 20
641.84
 30
0.0
 11
607.65
 21
640.64
 31
0.0
  0
LINE
  5
2CF
330
1F
100
AcDbEntity
  8
2
  6
Continuous
 62
     1
100
AcDbLine
 10
608.85
 20
641.84
 30
0.0
 11
610.05
 21
640.64
 31
0.0
  0
LWPOLYLINE
  5
2D1
330
1F
100
AcDbEntity
  8
2
  6
Continuous
 62
     1
100
AcDbPolyline
 90
     4
 70
   128
 43
0.0
 10
661.85
 20
638.64
 10
661.85
 20
639.14
 10
653.85
 20
639.14
 10
653.85
 20
638.64
  0
LINE
  5
2D2
330
1F
100
AcDbEntity
  8
2
  6
Continuous
 62
     1
100
AcDbLine
 10
660.85
 20
639.84
 30
0.0
 11
660.85
 21
639.14
 31
0.0
  0
LWPOLYLINE
  5
2D4
330
1F
100
AcDbEntity
  8
2
  6
Continuous
 62
     1
100
AcDbPolyline
 90
     3
 70
   128
 43
0.0
 10
654.85
 20
639.14
 10
654.85
 20
639.84
 10
660.85
 20
639.84
  0
LINE
  5
2D5
330
1F
100
AcDbEntity
  8
2
  6
Continuous
 62
     1
100
AcDbLine
 10
658.25
 20
639.14
 30
0.0
 11
657.45
 21
639.84
 31
0.0
  0
ARC
  5
2D6
330
1F
100
AcDbEntity
  8
2
  6
Continuous
 62
     1
100
AcDbCircle
 10
656.85
 20
639.84
 30
0.0
 40
2.0
100
AcDbArc
 50
90.0
 51
180.0
  0
ARC
  5
2D7
330
1F
100
AcDbEntity
  8
2
  6
Continuous
 62
     1
100
AcDbCircle
 10
658.85
 20
639.84
 30
0.0
 40
2.0
100
AcDbArc
 50
0.0
 51
90.0
  0
LINE
  5
2D8
330
1F
100
AcDbEntity
  8
2
  6
Continuous
 62
     1
100
AcDbLine
 10
657.85
 20
641.84
 30
0.0
 11
656.65
 21
640.64
 31
0.0
  0
LINE
  5
2D9
330
1F
100
AcDbEntity
  8
2
  6
Continuous
 62
     1
100
AcDbLine
 10
657.85
 20
641.84
 30
0.0
 11
659.05
 21
640.64
 31
0.0
  0
LINE
  5
2DA
330
1F
100
AcDbEntity
  8
2
  6
Continuous
 62
     1
100
AcDbLine
 10
659.23
 20
641.84
 30
0.0
 11
656.85
 21
641.84
 31
0.0
  0
LINE
  5
2DB
330
1F
100
AcDbEntity
  8
2
  6
Continuous
 62
     1
100
AcDbLine
 10
665.40764502
 20
607.28235498
 30
0.0
 11
662.69235498
 21
609.99764502
 31
0.0
  0
LINE
  5
2DC
330
1F
100
AcDbEntity
  8
2
  6
Continuous
 62
     1
100
AcDbLine
 10
662.69235498
 20
607.28235498
 30
0.0
 11
665.40764502
 21
609.99764502
 31
0.0
  0
CIRCLE
  5
2DD
330
1F
100
AcDbEntity
  8
2
  6
Continuous
 62
     1
100
AcDbCircle
 10
664.05
 20
608.64
 30
0.0
 40
3.0
  0
LINE
  5
2DE
330
1F
100
AcDbEntity
  8
2
  6
Continuous
 62
     1
100
AcDbLine
 10
478.20764502
 20
607.28235498
 30
0.0
 11
475.49235498
 21
609.99764502
 31
0.0
  0
LINE
  5
2DF
330
1F
100
AcDbEntity
  8
2
  6
Continuous
 62
     1
100
AcDbLine
 10
475.49235498
 20
607.28235498
 30
0.0
 11
478.20764502
 21
609.99764502
 31
0.0
  0
CIRCLE
  5
2E0
330
1F
100
AcDbEntity
  8
2
  6
Continuous
 62
     1
100
AcDbCircle
 10
476.85
 20
608.64
 30
0.0
 40
3.0
  0
CIRCLE
  5
2E1
330
1F
100
AcDbEntity
  8
2
  6
Continuous
 62
     1
100
AcDbCircle
 10
264.05
 20
608.64
 30
0.0
 40
3.0
  0
LINE
  5
2E2
330
1F
100
AcDbEntity
  8
2
  6
Continuous
 62
     1
100
AcDbLine
 10
265.40764502
 20
607.28235498
 30
0.0
 11
262.69235498
 21
609.99764502
 31
0.0
  0
LINE
  5
2E3
330
1F
100
AcDbEntity
  8
2
  6
Continuous
 62
     1
100
AcDbLine
 10
262.69235498
 20
607.28235498
 30
0.0
 11
265.40764502
 21
609.99764502
 31
0.0
  0
LINE
  5
2E4
330
1F
100
AcDbEntity
  8
2
  6
Continuous
 62
     1
100
AcDbLine
 10
248.05
 20
581.79
 30
0.0
 11
247.05
 21
581.702511336
 31
0.0
  0
LINE
  5
2E5
330
1F
100
AcDbEntity
  8
2
  6
Continuous
 62
     1
100
AcDbLine
 10
248.05
 20
575.49
 30
0.0
 11
247.05
 21
575.577488664
 31
0.0
  0
LINE
  5
2E6
330
1F
100
AcDbEntity
  8
2
  6
Continuous
 62
     1
100
AcDbLine
 10
247.05
 20
581.702511336
 30
0.0
 11
247.05
 21
575.577488664
 31
0.0
  0
ARC
  5
2E7
330
1F
100
AcDbEntity
  8
2
  6
Continuous
 62
     1
100
AcDbCircle
 10
251.810542048
 20
578.64
 30
0.0
 40
5.660542048
100
AcDbArc
 50
147.24635818
 51
212.753641819
  0
LINE
  5
2E8
330
1F
100
AcDbEntity
  8
2
  6
Continuous
 62
     1
100
AcDbLine
 10
680.05
 20
581.79
 30
0.0
 11
681.05
 21
581.702511336
 31
0.0
  0
LINE
  5
2E9
330
1F
100
AcDbEntity
  8
2
  6
Continuous
 62
     1
100
AcDbLine
 10
680.05
 20
575.49
 30
0.0
 11
681.05
 21
575.577488664
 31
0.0
  0
LINE
  5
2EA
330
1F
100
AcDbEntity
  8
2
  6
Continuous
 62
     1
100
AcDbLine
 10
681.05
 20
581.702511336
 30
0.0
 11
681.05
 21
575.577488664
 31
0.0
  0
ARC
  5
2EB
330
1F
100
AcDbEntity
  8
2
  6
Continuous
 62
     1
100
AcDbCircle
 10
676.289457952
 20
578.64
 30
0.0
 40
5.660542048
100
AcDbArc
 50
327.246358181
 51
32.75364182
  0
LINE
  5
2EC
330
1F
100
AcDbEntity
  8
2
  6
Continuous
 62
     1
100
AcDbLine
 10
680.05
 20
446.79
 30
0.0
 11
681.05
 21
446.702511336
 31
0.0
  0
LINE
  5
2ED
330
1F
100
AcDbEntity
  8
2
  6
Continuous
 62
     1
100
AcDbLine
 10
680.05
 20
440.49
 30
0.0
 11
681.05
 21
440.577488664
 31
0.0
  0
LINE
  5
2EE
330
1F
100
AcDbEntity
  8
2
  6
Continuous
 62
     1
100
AcDbLine
 10
681.05
 20
446.702511336
 30
0.0
 11
681.05
 21
440.577488664
 31
0.0
  0
ARC
  5
2EF
330
1F
100
AcDbEntity
  8
2
  6
Continuous
 62
     1
100
AcDbCircle
 10
676.289457952
 20
443.64
 30
0.0
 40
5.660542048
100
AcDbArc
 50
327.246358181
 51
32.75364182
  0
CIRCLE
  5
2F0
330
1F
100
AcDbEntity
  8
2
  6
Continuous
 62
     1
100
AcDbCircle
 10
823.85
 20
443.64
 30
0.0
 40
3.15
  0
LINE
  5
2F1
330
1F
100
AcDbEntity
  8
2
  6
Continuous
 62
     1
100
AcDbLine
 10
825.20764502
 20
442.28235498
 30
0.0
 11
822.49235498
 21
444.99764502
 31
0.0
  0
LINE
  5
2F2
330
1F
100
AcDbEntity
  8
2
  6
Continuous
 62
     1
100
AcDbLine
 10
822.49235498
 20
442.28235498
 30
0.0
 11
825.20764502
 21
444.99764502
 31
0.0
  0
CIRCLE
  5
2F3
330
1F
100
AcDbEntity
  8
2
  6
Continuous
 62
     1
100
AcDbCircle
 10
823.85
 20
578.64
 30
0.0
 40
3.15
  0
LINE
  5
2F4
330
1F
100
AcDbEntity
  8
2
  6
Continuous
 62
     1
100
AcDbLine
 10
825.20764502
 20
577.28235498
 30
0.0
 11
822.49235498
 21
579.99764502
 31
0.0
  0
LINE
  5
2F5
330
1F
100
AcDbEntity
  8
2
  6
Continuous
 62
     1
100
AcDbLine
 10
822.49235498
 20
577.28235498
 30
0.0
 11
825.20764502
 21
579.99764502
 31
0.0
  0
LINE
  5
2F6
330
1F
100
AcDbEntity
  8
2
  6
Continuous
 62
     1
100
AcDbLine
 10
791.85
 20
613.64
 30
0.0
 11
821.85
 21
613.64
 31
0.0
  0
LINE
  5
2F7
330
1F
100
AcDbEntity
  8
2
  6
Continuous
 62
     1
100
AcDbLine
 10
791.85
 20
637.64
 30
0.0
 11
821.85
 21
637.64
 31
0.0
  0
LINE
  5
2F8
330
1F
100
AcDbEntity
  8
2
  6
Continuous
 62
     1
100
AcDbLine
 10
791.85
 20
637.64
 30
0.0
 11
791.85
 21
613.64
 31
0.0
  0
LINE
  5
2F9
330
1F
100
AcDbEntity
  8
2
  6
Continuous
 62
     1
100
AcDbLine
 10
821.85
 20
637.64
 30
0.0
 11
821.85
 21
613.64
 31
0.0
  0
LINE
  5
2FA
330
1F
100
AcDbEntity
  8
2
  6
Continuous
 62
     1
100
AcDbLine
 10
791.85
 20
637.64
 30
0.0
 11
791.85
 21
638.64
 31
0.0
  0
LINE
  5
2FB
330
1F
100
AcDbEntity
  8
2
  6
Continuous
 62
     1
100
AcDbLine
 10
821.85
 20
637.64
 30
0.0
 11
821.85
 21
638.64
 31
0.0
  0
LINE
  5
2FC
330
1F
100
AcDbEntity
  8
2
  6
Continuous
 62
     1
100
AcDbLine
 10
791.85
 20
638.64
 30
0.0
 11
821.85
 21
638.64
 31
0.0
  0
LINE
  5
2FD
330
1F
100
AcDbEntity
  8
2
  6
Continuous
 62
     1
100
AcDbLine
 10
801.1
 20
637.64
 30
0.0
 11
801.1
 21
625.64
 31
0.0
  0
LINE
  5
2FE
330
1F
100
AcDbEntity
  8
2
  6
Continuous
 62
     1
100
AcDbLine
 10
812.6
 20
637.64
 30
0.0
 11
812.6
 21
625.64
 31
0.0
  0
LWPOLYLINE
  5
300
330
1F
100
AcDbEntity
  8
2
  6
Continuous
 62
     1
100
AcDbPolyline
 90
     3
 70
   128
 43
0.0
 10
801.1
 20
625.64
 10
804.35
 20
625.64
 10
804.35
 20
613.64
  0
LINE
  5
301
330
1F
100
AcDbEntity
  8
2
  6
Continuous
 62
     1
100
AcDbLine
 10
809.35
 20
625.64
 30
0.0
 11
809.35
 21
613.64
 31
0.0
  0
LINE
  5
302
330
1F
100
AcDbEntity
  8
2
  6
Continuous
 62
     1
100
AcDbLine
 10
809.35
 20
625.64
 30
0.0
 11
812.6
 21
625.64
 31
0.0
  0
LWPOLYLINE
  5
304
330
1F
100
AcDbEntity
  8
2
  6
Continuous
 62
     1
100
AcDbPolyline
 90
     4
 70
   128
 43
0.0
 10
800.85
 20
638.64
 10
800.85
 20
639.14
 10
792.85
 20
639.14
 10
792.85
 20
638.64
  0
LINE
  5
305
330
1F
100
AcDbEntity
  8
2
  6
Continuous
 62
     1
100
AcDbLine
 10
799.85
 20
639.84
 30
0.0
 11
799.85
 21
639.14
 31
0.0
  0
LWPOLYLINE
  5
307
330
1F
100
AcDbEntity
  8
2
  6
Continuous
 62
     1
100
AcDbPolyline
 90
     3
 70
   128
 43
0.0
 10
793.85
 20
639.14
 10
793.85
 20
639.84
 10
799.85
 20
639.84
  0
LINE
  5
308
330
1F
100
AcDbEntity
  8
2
  6
Continuous
 62
     1
100
AcDbLine
 10
797.25
 20
639.14
 30
0.0
 11
796.45
 21
639.84
 31
0.0
  0
ARC
  5
309
330
1F
100
AcDbEntity
  8
2
  6
Continuous
 62
     1
100
AcDbCircle
 10
795.85
 20
639.84
 30
0.0
 40
2.0
100
AcDbArc
 50
90.0
 51
180.0
  0
ARC
  5
30A
330
1F
100
AcDbEntity
  8
2
  6
Continuous
 62
     1
100
AcDbCircle
 10
797.85
 20
639.84
 30
0.0
 40
2.0
100
AcDbArc
 50
0.0
 51
90.0
  0
LINE
  5
30B
330
1F
100
AcDbEntity
  8
2
  6
Continuous
 62
     1
100
AcDbLine
 10
796.85
 20
641.84
 30
0.0
 11
795.65
 21
640.64
 31
0.0
  0
LINE
  5
30C
330
1F
100
AcDbEntity
  8
2
  6
Continuous
 62
     1
100
AcDbLine
 10
796.85
 20
641.84
 30
0.0
 11
798.05
 21
640.64
 31
0.0
  0
LINE
  5
30D
330
1F
100
AcDbEntity
  8
2
  6
Continuous
 62
     1
100
AcDbLine
 10
798.23
 20
641.84
 30
0.0
 11
795.85
 21
641.84
 31
0.0
  0
LWPOLYLINE
  5
30F
330
1F
100
AcDbEntity
  8
2
  6
Continuous
 62
     1
100
AcDbPolyline
 90
     4
 70
   128
 43
0.0
 10
820.85
 20
638.64
 10
820.85
 20
639.14
 10
812.85
 20
639.14
 10
812.85
 20
638.64
  0
LINE
  5
310
330
1F
100
AcDbEntity
  8
2
  6
Continuous
 62
     1
100
AcDbLine
 10
819.85
 20
639.84
 30
0.0
 11
819.85
 21
639.14
 31
0.0
  0
LWPOLYLINE
  5
312
330
1F
100
AcDbEntity
  8
2
  6
Continuous
 62
     1
100
AcDbPolyline
 90
     3
 70
   128
 43
0.0
 10
813.85
 20
639.14
 10
813.85
 20
639.84
 10
819.85
 20
639.84
  0
LINE
  5
313
330
1F
100
AcDbEntity
  8
2
  6
Continuous
 62
     1
100
AcDbLine
 10
817.25
 20
639.14
 30
0.0
 11
816.45
 21
639.84
 31
0.0
  0
ARC
  5
314
330
1F
100
AcDbEntity
  8
2
  6
Continuous
 62
     1
100
AcDbCircle
 10
815.85
 20
639.84
 30
0.0
 40
2.0
100
AcDbArc
 50
90.0
 51
180.0
  0
ARC
  5
315
330
1F
100
AcDbEntity
  8
2
  6
Continuous
 62
     1
100
AcDbCircle
 10
817.85
 20
639.84
 30
0.0
 40
2.0
100
AcDbArc
 50
0.0
 51
90.0
  0
LINE
  5
316
330
1F
100
AcDbEntity
  8
2
  6
Continuous
 62
     1
100
AcDbLine
 10
816.85
 20
641.84
 30
0.0
 11
815.65
 21
640.64
 31
0.0
  0
LINE
  5
317
330
1F
100
AcDbEntity
  8
2
  6
Continuous
 62
     1
100
AcDbLine
 10
816.85
 20
641.84
 30
0.0
 11
818.05
 21
640.64
 31
0.0
  0
LINE
  5
318
330
1F
100
AcDbEntity
  8
2
  6
Continuous
 62
     1
100
AcDbLine
 10
818.23
 20
641.84
 30
0.0
 11
815.85
 21
641.84
 31
0.0
  0
LINE
  5
319
330
1F
100
AcDbEntity
  8
2
  6
Continuous
 62
     1
100
AcDbLine
 10
801.6625
 20
625.64
 30
0.0
 11
812.0375
 21
625.64
 31
0.0
  0
LINE
  5
31A
330
1F
100
AcDbEntity
  8
2
  6
Continuous
 62
     1
100
AcDbLine
 10
801.6625
 20
625.64
 30
0.0
 11
801.6625
 21
626.34
 31
0.0
  0
LINE
  5
31B
330
1F
100
AcDbEntity
  8
2
  6
Continuous
 62
     1
100
AcDbLine
 10
801.6625
 20
626.34
 30
0.0
 11
812.0375
 21
626.34
 31
0.0
  0
LINE
  5
31C
330
1F
100
AcDbEntity
  8
2
  6
Continuous
 62
     1
100
AcDbLine
 10
812.0375
 20
625.64
 30
0.0
 11
812.0375
 21
626.34
 31
0.0
  0
LINE
  5
31D
330
1F
100
AcDbEntity
  8
2
  6
Continuous
 62
     1
100
AcDbLine
 10
811.1
 20
627.34
 30
0.0
 11
811.1
 21
626.34
 31
0.0
  0
LINE
  5
31E
330
1F
100
AcDbEntity
  8
2
  6
Continuous
 62
     1
100
AcDbLine
 10
811.1
 20
627.34
 30
0.0
 11
802.6
 21
627.34
 31
0.0
  0
LINE
  5
31F
330
1F
100
AcDbEntity
  8
2
  6
Continuous
 62
     1
100
AcDbLine
 10
802.6
 20
627.34
 30
0.0
 11
802.6
 21
626.34
 31
0.0
  0
LINE
  5
320
330
1F
100
AcDbEntity
  8
2
  6
Continuous
 62
     1
100
AcDbLine
 10
806.35
 20
627.34
 30
0.0
 11
805.35
 21
626.34
 31
0.0
  0
LINE
  5
321
330
1F
100
AcDbEntity
  8
2
  6
Continuous
 62
     1
100
AcDbLine
 10
807.85
 20
627.34
 30
0.0
 11
806.85
 21
626.34
 31
0.0
  0
LINE
  5
322
330
1F
100
AcDbEntity
  8
2
  6
Continuous
 62
     1
100
AcDbLine
 10
802.6
 20
626.34
 30
0.0
 11
811.1
 21
626.34
 31
0.0
  0
LINE
  5
323
330
1F
100
AcDbEntity
  8
2
  6
Continuous
 62
     1
100
AcDbLine
 10
802.6
 20
628.84
 30
0.0
 11
802.6
 21
627.34
 31
0.0
  0
ARC
  5
324
330
1F
100
AcDbEntity
  8
2
  6
Continuous
 62
     1
100
AcDbCircle
 10
804.1
 20
628.84
 30
0.0
 40
1.5
100
AcDbArc
 50
90.0
 51
180.0
  0
LINE
  5
325
330
1F
100
AcDbEntity
  8
2
  6
Continuous
 62
     1
100
AcDbLine
 10
811.1
 20
628.84
 30
0.0
 11
811.1
 21
627.34
 31
0.0
  0
LINE
  5
326
330
1F
100
AcDbEntity
  8
2
  6
Continuous
 62
     1
100
AcDbLine
 10
809.6
 20
630.34
 30
0.0
 11
804.1
 21
630.34
 31
0.0
  0
ARC
  5
327
330
1F
100
AcDbEntity
  8
2
  6
Continuous
 62
     1
100
AcDbCircle
 10
809.6
 20
628.84
 30
0.0
 40
1.5
100
AcDbArc
 50
0.0
 51
90.0
  0
LINE
  5
328
330
1F
100
AcDbEntity
  8
2
  6
Continuous
 62
     1
100
AcDbLine
 10
808.85
 20
625.64
 30
0.0
 11
808.85
 21
613.64
 31
0.0
  0
LINE
  5
329
330
1F
100
AcDbEntity
  8
2
  6
Continuous
 62
     1
100
AcDbLine
 10
804.85
 20
625.64
 30
0.0
 11
804.85
 21
613.64
 31
0.0
  0
CIRCLE
  5
32A
330
1F
100
AcDbEntity
  8
2
  6
Continuous
 62
     1
100
AcDbCircle
 10
795.15
 20
333.64
 30
0.0
 40
4.0
  0
CIRCLE
  5
32B
330
1F
100
AcDbEntity
  8
2
  6
Continuous
 62
     1
100
AcDbCircle
 10
818.85
 20
333.64
 30
0.0
 40
4.0
  0
LINE
  5
32C
330
1F
100
AcDbEntity
  8
2
  6
Continuous
 62
     1
100
AcDbLine
 10
797.4127417
 20
331.3772583
 30
0.0
 11
792.8872583
 21
335.9027417
 31
0.0
  0
LINE
  5
32D
330
1F
100
AcDbEntity
  8
2
  6
Continuous
 62
     1
100
AcDbLine
 10
792.8872583
 20
331.3772583
 30
0.0
 11
797.4127417
 21
335.9027417
 31
0.0
  0
LINE
  5
32E
330
1F
100
AcDbEntity
  8
2
  6
Continuous
 62
     1
100
AcDbLine
 10
821.1127417
 20
331.3772583
 30
0.0
 11
816.5872583
 21
335.9027417
 31
0.0
  0
LINE
  5
32F
330
1F
100
AcDbEntity
  8
2
  6
Continuous
 62
     1
100
AcDbLine
 10
816.5872583
 20
331.3772583
 30
0.0
 11
821.1127417
 21
335.9027417
 31
0.0
  0
CIRCLE
  5
330
330
1F
100
AcDbEntity
  8
2
  6
Continuous
 62
     1
100
AcDbCircle
 10
795.15
 20
283.64
 30
0.0
 40
4.0
  0
LINE
  5
331
330
1F
100
AcDbEntity
  8
2
  6
Continuous
 62
     1
100
AcDbLine
 10
792.8872583
 20
281.3772583
 30
0.0
 11
797.4127417
 21
285.9027417
 31
0.0
  0
CIRCLE
  5
332
330
1F
100
AcDbEntity
  8
2
  6
Continuous
 62
     1
100
AcDbCircle
 10
818.85
 20
283.64
 30
0.0
 40
4.0
  0
LINE
  5
333
330
1F
100
AcDbEntity
  8
2
  6
Continuous
 62
     1
100
AcDbLine
 10
816.5872583
 20
281.3772583
 30
0.0
 11
821.1127417
 21
285.9027417
 31
0.0
  0
LINE
  5
334
330
1F
100
AcDbEntity
  8
2
  6
Continuous
 62
     1
100
AcDbLine
 10
797.4127417
 20
281.3772583
 30
0.0
 11
792.8872583
 21
285.9027417
 31
0.0
  0
LINE
  5
335
330
1F
100
AcDbEntity
  8
2
  6
Continuous
 62
     1
100
AcDbLine
 10
821.1127417
 20
281.3772583
 30
0.0
 11
816.5872583
 21
285.9027417
 31
0.0
  0
CIRCLE
  5
336
330
1F
100
AcDbEntity
  8
2
  6
Continuous
 62
     1
100
AcDbCircle
 10
823.85
 20
308.64
 30
0.0
 40
3.15
  0
LINE
  5
337
330
1F
100
AcDbEntity
  8
2
  6
Continuous
 62
     1
100
AcDbLine
 10
825.20764502
 20
307.28235498
 30
0.0
 11
822.49235498
 21
309.99764502
 31
0.0
  0
LINE
  5
338
330
1F
100
AcDbEntity
  8
2
  6
Continuous
 62
     1
100
AcDbLine
 10
822.49235498
 20
307.28235498
 30
0.0
 11
825.20764502
 21
309.99764502
 31
0.0
  0
ARC
  5
339
330
1F
100
AcDbEntity
  8
2
  6
Continuous
 62
     1
100
AcDbCircle
 10
808.85
 20
236.64
 30
0.0
 40
2.0
100
AcDbArc
 50
180.0
 51
270.0
  0
LINE
  5
33A
330
1F
100
AcDbEntity
  8
2
  6
Continuous
 62
     1
100
AcDbLine
 10
808.85
 20
234.64
 30
0.0
 11
812.85
 21
234.64
 31
0.0
  0
ARC
  5
33B
330
1F
100
AcDbEntity
  8
2
  6
Continuous
 62
     1
100
AcDbCircle
 10
812.85
 20
236.64
 30
0.0
 40
2.0
100
AcDbArc
 50
270.0
 51
0.0
  0
LINE
  5
33C
330
1F
100
AcDbEntity
  8
2
  6
Continuous
 62
     1
100
AcDbLine
 10
803.85
 20
234.64
 30
0.0
 11
751.45
 21
234.64
 31
0.0
  0
LINE
  5
33D
330
1F
100
AcDbEntity
  8
2
  6
Continuous
 62
     1
100
AcDbLine
 10
806.85
 20
273.64
 30
0.0
 11
806.85
 21
236.64
 31
0.0
  0
LINE
  5
33E
330
1F
100
AcDbEntity
  8
2
  6
Continuous
 62
     1
100
AcDbLine
 10
814.85
 20
273.64
 30
0.0
 11
814.85
 21
236.64
 31
0.0
  0
LINE
  5
33F
330
1F
100
AcDbEntity
  8
2
  6
Continuous
 62
     1
100
AcDbLine
 10
410.05
 20
273.64
 30
0.0
 11
410.05
 21
248.64
 31
0.0
  0
ARC
  5
340
330
1F
100
AcDbEntity
  8
2
  6
Continuous
 62
     1
100
AcDbCircle
 10
424.05
 20
248.64
 30
0.0
 40
14.0
100
AcDbArc
 50
180.0
 51
270.0
  0
LINE
  5
341
330
1F
100
AcDbEntity
  8
2
  6
Continuous
 62
     1
100
AcDbLine
 10
518.05
 20
273.64
 30
0.0
 11
518.05
 21
248.64
 31
0.0
  0
LINE
  5
342
330
1F
100
AcDbEntity
  8
2
  6
Continuous
 62
     1
100
AcDbLine
 10
424.05
 20
234.64
 30
0.0
 11
504.05
 21
234.64
 31
0.0
  0
ARC
  5
343
330
1F
100
AcDbEntity
  8
2
  6
Continuous
 62
     1
100
AcDbCircle
 10
504.05
 20
248.64
 30
0.0
 40
14.0
100
AcDbArc
 50
270.0
 51
0.0
  0
LINE
  5
344
330
1F
100
AcDbEntity
  8
2
  6
Continuous
 62
     1
100
AcDbLine
 10
418.05
 20
273.64
 30
0.0
 11
418.05
 21
248.640011444
 31
0.0
  0
ARC
  5
345
330
1F
100
AcDbEntity
  8
2
  6
Continuous
 62
     1
100
AcDbCircle
 10
424.05
 20
248.64
 30
0.0
 40
6.0
100
AcDbArc
 50
179.999890717
 51
270.000103033
  0
LINE
  5
346
330
1F
100
AcDbEntity
  8
2
  6
Continuous
 62
     1
100
AcDbLine
 10
424.05001079
 20
242.64
 30
0.0
 11
504.05001079
 21
242.64
 31
0.0
  0
ARC
  5
347
330
1F
100
AcDbEntity
  8
2
  6
Continuous
 62
     1
100
AcDbCircle
 10
504.05
 20
248.64
 30
0.0
 40
6.0
100
AcDbArc
 50
270.000103033
 51
0.000115193
  0
LINE
  5
348
330
1F
100
AcDbEntity
  8
2
  6
Continuous
 62
     1
100
AcDbLine
 10
510.05
 20
273.64
 30
0.0
 11
510.05
 21
248.640012063
 31
0.0
  0
CIRCLE
  5
349
330
1F
100
AcDbEntity
  8
2
  6
Continuous
 62
     1
100
AcDbCircle
 10
464.05
 20
279.64
 30
0.0
 40
3.0
  0
LINE
  5
34A
330
1F
100
AcDbEntity
  8
2
  6
Continuous
 62
     1
100
AcDbLine
 10
465.40764502
 20
278.28235498
 30
0.0
 11
462.69235498
 21
280.99764502
 31
0.0
  0
LINE
  5
34B
330
1F
100
AcDbEntity
  8
2
  6
Continuous
 62
     1
100
AcDbLine
 10
462.69235498
 20
278.28235498
 30
0.0
 11
465.40764502
 21
280.99764502
 31
0.0
  0
LINE
  5
34C
330
1F
100
AcDbEntity
  8
2
  6
Continuous
 62
     1
100
AcDbLine
 10
248.05
 20
446.79
 30
0.0
 11
247.05
 21
446.702511336
 31
0.0
  0
LINE
  5
34D
330
1F
100
AcDbEntity
  8
2
  6
Continuous
 62
     1
100
AcDbLine
 10
248.05
 20
440.49
 30
0.0
 11
247.05
 21
440.577488664
 31
0.0
  0
LINE
  5
34E
330
1F
100
AcDbEntity
  8
2
  6
Continuous
 62
     1
100
AcDbLine
 10
247.05
 20
446.702511336
 30
0.0
 11
247.05
 21
440.577488664
 31
0.0
  0
ARC
  5
34F
330
1F
100
AcDbEntity
  8
2
  6
Continuous
 62
     1
100
AcDbCircle
 10
251.810542048
 20
443.64
 30
0.0
 40
5.660542048
100
AcDbArc
 50
147.24635818
 51
212.753641819
  0
LINE
  5
350
330
1F
100
AcDbEntity
  8
2
  6
Continuous
 62
     1
100
AcDbLine
 10
248.25
 20
764.49
 30
0.0
 11
247.25
 21
764.402511336
 31
0.0
  0
LINE
  5
351
330
1F
100
AcDbEntity
  8
2
  6
Continuous
 62
     1
100
AcDbLine
 10
248.25
 20
758.19
 30
0.0
 11
247.25
 21
758.277488664
 31
0.0
  0
LINE
  5
352
330
1F
100
AcDbEntity
  8
2
  6
Continuous
 62
     1
100
AcDbLine
 10
247.25
 20
764.402511336
 30
0.0
 11
247.25
 21
758.277488664
 31
0.0
  0
ARC
  5
353
330
1F
100
AcDbEntity
  8
2
  6
Continuous
 62
     1
100
AcDbCircle
 10
252.010542048
 20
761.34
 30
0.0
 40
5.660542048
100
AcDbArc
 50
147.24635818
 51
212.753641819
  0
CIRCLE
  5
354
330
1F
100
AcDbEntity
  8
2
  6
Continuous
 62
     1
100
AcDbCircle
 10
316.85
 20
751.24
 30
0.0
 40
3.2
  0
LINE
  5
355
330
1F
100
AcDbEntity
  8
2
  6
Continuous
 62
     1
100
AcDbLine
 10
315.152943725
 20
752.937056275
 30
0.0
 11
318.547056275
 21
749.542943725
 31
0.0
  0
LINE
  5
356
330
1F
100
AcDbEntity
  8
2
  6
Continuous
 62
     1
100
AcDbLine
 10
315.152943725
 20
749.542943725
 30
0.0
 11
318.547056275
 21
752.937056275
 31
0.0
  0
LINE
  5
357
330
1F
100
AcDbEntity
  8
2
  6
Continuous
 62
     1
100
AcDbLine
 10
320.899995998
 20
756.24
 30
0.0
 11
312.800014007
 21
756.24
 31
0.0
  0
LINE
  5
358
330
1F
100
AcDbEntity
  8
2
  6
Continuous
 62
     1
100
AcDbLine
 10
312.800004002
 20
746.24
 30
0.0
 11
320.899985993
 21
746.24
 31
0.0
  0
CIRCLE
  5
359
330
1F
100
AcDbEntity
  8
2
  6
Continuous
 62
     1
100
AcDbCircle
 10
307.35
 20
751.24
 30
0.0
 40
3.2
  0
LINE
  5
35A
330
1F
100
AcDbEntity
  8
2
  6
Continuous
 62
     1
100
AcDbLine
 10
305.652943725
 20
752.937056275
 30
0.0
 11
309.047056275
 21
749.542943725
 31
0.0
  0
LINE
  5
35B
330
1F
100
AcDbEntity
  8
2
  6
Continuous
 62
     1
100
AcDbLine
 10
305.652943725
 20
749.542943725
 30
0.0
 11
309.047056275
 21
752.937056275
 31
0.0
  0
LINE
  5
35C
330
1F
100
AcDbEntity
  8
2
  6
Continuous
 62
     1
100
AcDbLine
 10
311.399995998
 20
756.24
 30
0.0
 11
303.300014007
 21
756.24
 31
0.0
  0
LINE
  5
35D
330
1F
100
AcDbEntity
  8
2
  6
Continuous
 62
     1
100
AcDbLine
 10
303.300004002
 20
746.24
 30
0.0
 11
311.399985993
 21
746.24
 31
0.0
  0
CIRCLE
  5
35E
330
1F
100
AcDbEntity
  8
2
  6
Continuous
 62
     1
100
AcDbCircle
 10
297.85
 20
751.24
 30
0.0
 40
3.2
  0
LINE
  5
35F
330
1F
100
AcDbEntity
  8
2
  6
Continuous
 62
     1
100
AcDbLine
 10
296.152943725
 20
752.937056275
 30
0.0
 11
299.547056275
 21
749.542943725
 31
0.0
  0
LINE
  5
360
330
1F
100
AcDbEntity
  8
2
  6
Continuous
 62
     1
100
AcDbLine
 10
296.152943725
 20
749.542943725
 30
0.0
 11
299.547056275
 21
752.937056275
 31
0.0
  0
LINE
  5
361
330
1F
100
AcDbEntity
  8
2
  6
Continuous
 62
     1
100
AcDbLine
 10
301.899995998
 20
756.24
 30
0.0
 11
293.800014007
 21
756.24
 31
0.0
  0
LINE
  5
362
330
1F
100
AcDbEntity
  8
2
  6
Continuous
 62
     1
100
AcDbLine
 10
293.800004002
 20
746.24
 30
0.0
 11
301.899985993
 21
746.24
 31
0.0
  0
CIRCLE
  5
363
330
1F
100
AcDbEntity
  8
2
  6
Continuous
 62
     1
100
AcDbCircle
 10
288.35
 20
751.24
 30
0.0
 40
3.2
  0
LINE
  5
364
330
1F
100
AcDbEntity
  8
2
  6
Continuous
 62
     1
100
AcDbLine
 10
286.652943725
 20
752.937056275
 30
0.0
 11
290.047056275
 21
749.542943725
 31
0.0
  0
LINE
  5
365
330
1F
100
AcDbEntity
  8
2
  6
Continuous
 62
     1
100
AcDbLine
 10
286.652943725
 20
749.542943725
 30
0.0
 11
290.047056275
 21
752.937056275
 31
0.0
  0
CIRCLE
  5
366
330
1F
100
AcDbEntity
  8
2
  6
Continuous
 62
     1
100
AcDbCircle
 10
335.85
 20
751.24
 30
0.0
 40
3.2
  0
LINE
  5
367
330
1F
100
AcDbEntity
  8
2
  6
Continuous
 62
     1
100
AcDbLine
 10
334.152943725
 20
752.937056275
 30
0.0
 11
337.547056275
 21
749.542943725
 31
0.0
  0
LINE
  5
368
330
1F
100
AcDbEntity
  8
2
  6
Continuous
 62
     1
100
AcDbLine
 10
334.152943725
 20
749.542943725
 30
0.0
 11
337.547056275
 21
752.937056275
 31
0.0
  0
LINE
  5
369
330
1F
100
AcDbEntity
  8
2
  6
Continuous
 62
     1
100
AcDbLine
 10
339.899995998
 20
756.24
 30
0.0
 11
331.800014007
 21
756.24
 31
0.0
  0
LINE
  5
36A
330
1F
100
AcDbEntity
  8
2
  6
Continuous
 62
     1
100
AcDbLine
 10
331.800004002
 20
746.24
 30
0.0
 11
339.899985993
 21
746.24
 31
0.0
  0
CIRCLE
  5
36B
330
1F
100
AcDbEntity
  8
2
  6
Continuous
 62
     1
100
AcDbCircle
 10
326.35
 20
751.24
 30
0.0
 40
3.2
  0
LINE
  5
36C
330
1F
100
AcDbEntity
  8
2
  6
Continuous
 62
     1
100
AcDbLine
 10
324.652943725
 20
752.937056275
 30
0.0
 11
328.047056275
 21
749.542943725
 31
0.0
  0
LINE
  5
36D
330
1F
100
AcDbEntity
  8
2
  6
Continuous
 62
     1
100
AcDbLine
 10
324.652943725
 20
749.542943725
 30
0.0
 11
328.047056275
 21
752.937056275
 31
0.0
  0
LINE
  5
36E
330
1F
100
AcDbEntity
  8
2
  6
Continuous
 62
     1
100
AcDbLine
 10
330.399995998
 20
756.24
 30
0.0
 11
322.300014007
 21
756.24
 31
0.0
  0
LINE
  5
36F
330
1F
100
AcDbEntity
  8
2
  6
Continuous
 62
     1
100
AcDbLine
 10
322.300004002
 20
746.24
 30
0.0
 11
330.399985993
 21
746.24
 31
0.0
  0
CIRCLE
  5
370
330
1F
100
AcDbEntity
  8
2
  6
Continuous
 62
     1
100
AcDbCircle
 10
345.35
 20
751.24
 30
0.0
 40
3.2
  0
LINE
  5
371
330
1F
100
AcDbEntity
  8
2
  6
Continuous
 62
     1
100
AcDbLine
 10
343.652943725
 20
752.937056275
 30
0.0
 11
347.047056275
 21
749.542943725
 31
0.0
  0
LINE
  5
372
330
1F
100
AcDbEntity
  8
2
  6
Continuous
 62
     1
100
AcDbLine
 10
343.652943725
 20
749.542943725
 30
0.0
 11
347.047056275
 21
752.937056275
 31
0.0
  0
LINE
  5
373
330
1F
100
AcDbEntity
  8
2
  6
Continuous
 62
     1
100
AcDbLine
 10
284.249985993
 20
746.24
 30
0.0
 11
292.399985993
 21
746.24
 31
0.0
  0
LINE
  5
374
330
1F
100
AcDbEntity
  8
2
  6
Continuous
 62
     1
100
AcDbLine
 10
292.399995998
 20
756.24
 30
0.0
 11
284.249995998
 21
756.24
 31
0.0
  0
LINE
  5
375
330
1F
100
AcDbEntity
  8
2
  6
Continuous
 62
     1
100
AcDbLine
 10
341.300004002
 20
746.24
 30
0.0
 11
349.450014007
 21
746.24
 31
0.0
  0
LINE
  5
376
330
1F
100
AcDbEntity
  8
2
  6
Continuous
 62
     1
100
AcDbLine
 10
349.450004002
 20
756.24
 30
0.0
 11
341.300014007
 21
756.24
 31
0.0
  0
LINE
  5
377
330
1F
100
AcDbEntity
  8
2
  6
Continuous
 62
     1
100
AcDbLine
 10
284.25
 20
759.74
 30
0.0
 11
349.4
 21
759.74
 31
0.0
  0
LINE
  5
378
330
1F
100
AcDbEntity
  8
2
  6
Continuous
 62
     1
100
AcDbLine
 10
284.249981991
 20
742.74
 30
0.0
 11
349.4
 21
742.74
 31
0.0
  0
LINE
  5
379
330
1F
100
AcDbEntity
  8
2
  6
Continuous
 62
     1
100
AcDbLine
 10
284.2499995
 20
759.74
 30
0.0
 11
284.249982491
 21
742.74
 31
0.0
  0
LINE
  5
37A
330
1F
100
AcDbEntity
  8
2
  6
Continuous
 62
     1
100
AcDbLine
 10
292.3999995
 20
759.74
 30
0.0
 11
292.399982491
 21
742.74
 31
0.0
  0
LINE
  5
37B
330
1F
100
AcDbEntity
  8
2
  6
Continuous
 62
     1
100
AcDbLine
 10
293.800017509
 20
742.74
 30
0.0
 11
293.8000005
 21
759.74
 31
0.0
  0
LINE
  5
37C
330
1F
100
AcDbEntity
  8
2
  6
Continuous
 62
     1
100
AcDbLine
 10
301.8999995
 20
759.74
 30
0.0
 11
301.899982491
 21
742.74
 31
0.0
  0
LINE
  5
37D
330
1F
100
AcDbEntity
  8
2
  6
Continuous
 62
     1
100
AcDbLine
 10
303.300017509
 20
742.74
 30
0.0
 11
303.3000005
 21
759.74
 31
0.0
  0
LINE
  5
37E
330
1F
100
AcDbEntity
  8
2
  6
Continuous
 62
     1
100
AcDbLine
 10
311.3999995
 20
759.74
 30
0.0
 11
311.399982491
 21
742.74
 31
0.0
  0
LINE
  5
37F
330
1F
100
AcDbEntity
  8
2
  6
Continuous
 62
     1
100
AcDbLine
 10
312.800017509
 20
742.74
 30
0.0
 11
312.8000005
 21
759.74
 31
0.0
  0
LINE
  5
380
330
1F
100
AcDbEntity
  8
2
  6
Continuous
 62
     1
100
AcDbLine
 10
320.8999995
 20
759.74
 30
0.0
 11
320.899982491
 21
742.74
 31
0.0
  0
LINE
  5
381
330
1F
100
AcDbEntity
  8
2
  6
Continuous
 62
     1
100
AcDbLine
 10
322.300017509
 20
742.74
 30
0.0
 11
322.3000005
 21
759.74
 31
0.0
  0
LINE
  5
382
330
1F
100
AcDbEntity
  8
2
  6
Continuous
 62
     1
100
AcDbLine
 10
330.3999995
 20
759.74
 30
0.0
 11
330.399982491
 21
742.74
 31
0.0
  0
LINE
  5
383
330
1F
100
AcDbEntity
  8
2
  6
Continuous
 62
     1
100
AcDbLine
 10
331.800017509
 20
742.74
 30
0.0
 11
331.8000005
 21
759.74
 31
0.0
  0
LINE
  5
384
330
1F
100
AcDbEntity
  8
2
  6
Continuous
 62
     1
100
AcDbLine
 10
339.8999995
 20
759.74
 30
0.0
 11
339.899982491
 21
742.74
 31
0.0
  0
LINE
  5
385
330
1F
100
AcDbEntity
  8
2
  6
Continuous
 62
     1
100
AcDbLine
 10
341.300017509
 20
742.74
 30
0.0
 11
341.3000005
 21
759.74
 31
0.0
  0
TEXT
  5
386
330
1F
100
AcDbEntity
  8
2
  6
Continuous
 62
     1
100
AcDbText
 10
320.32
 20
740.86
 30
0.0
 40
4.5
  1
ＦＧ
 50
180.0
 41
0.866666667
  7
KANJI5
100
AcDbText
  0
TEXT
  5
388
330
1F
100
AcDbEntity
  8
2
  6
Continuous
 62
     1
100
AcDbText
 10
310.635
 20
731.99
 30
0.0
 40
4.5
  1
ＡＣ　ＩＮ
 50
180.0
 41
0.866666667
  7
KANJI5
100
AcDbText
  0
TEXT
  5
389
330
1F
100
AcDbEntity
  8
2
  6
Continuous
 62
     1
100
AcDbText
 10
299.91
 20
740.86
 30
0.0
 40
4.5
  1
Ｎ
 50
180.0
 41
0.866666667
  7
KANJI5
100
AcDbText
  0
TEXT
  5
38A
330
1F
100
AcDbEntity
  8
2
  6
Continuous
 62
     1
100
AcDbText
 10
309.29
 20
740.86
 30
0.0
 40
4.5
  1
Ｌ
 50
180.0
 41
0.866666667
  7
KANJI5
100
AcDbText
  0
LINE
  5
38B
330
1F
100
AcDbEntity
  8
2
  6
Continuous
 62
     1
100
AcDbLine
 10
307.35
 20
735.43
 30
0.0
 11
307.35
 21
732.82
 31
0.0
  0
LINE
  5
38C
330
1F
100
AcDbEntity
  8
2
  6
Continuous
 62
     1
100
AcDbLine
 10
297.85
 20
735.43
 30
0.0
 11
297.85
 21
732.82
 31
0.0
  0
LINE
  5
38D
330
1F
100
AcDbEntity
  8
2
  6
Continuous
 62
     1
100
AcDbLine
 10
297.85
 20
732.82
 30
0.0
 11
307.35
 21
732.82
 31
0.0
  0
TEXT
  5
38E
330
1F
100
AcDbEntity
  8
2
  6
Continuous
 62
     1
100
AcDbText
 10
328.41
 20
740.86
 30
0.0
 40
4.5
  1
Ｌ
 50
180.0
 41
0.866666667
  7
KANJI5
100
AcDbText
  0
TEXT
  5
38F
330
1F
100
AcDbEntity
  8
2
  6
Continuous
 62
     1
100
AcDbText
 10
337.79
 20
740.86
 30
0.0
 40
4.5
  1
Ｎ
 50
180.0
 41
0.866666667
  7
KANJI5
100
AcDbText
  0
LINE
  5
390
330
1F
100
AcDbEntity
  8
2
  6
Continuous
 62
     1
100
AcDbLine
 10
335.85
 20
735.43
 30
0.0
 11
335.85
 21
732.82
 31
0.0
  0
LINE
  5
391
330
1F
100
AcDbEntity
  8
2
  6
Continuous
 62
     1
100
AcDbLine
 10
326.35
 20
735.43
 30
0.0
 11
326.35
 21
732.82
 31
0.0
  0
LINE
  5
392
330
1F
100
AcDbEntity
  8
2
  6
Continuous
 62
     1
100
AcDbLine
 10
326.35
 20
732.82
 30
0.0
 11
335.85
 21
732.82
 31
0.0
  0
TEXT
  5
393
330
1F
100
AcDbEntity
  8
2
  6
Continuous
 62
     1
100
AcDbText
 10
340.445
 20
731.93
 30
0.0
 40
4.5
  1
ＡＣ　ＯＵＴ
 50
180.0
 41
0.866666667
  7
KANJI5
100
AcDbText
  0
ARC
  5
394
330
1F
100
AcDbEntity
  8
2
  6
Continuous
 62
     1
100
AcDbCircle
 10
373.1
 20
754.49
 30
0.0
 40
2.6
100
AcDbArc
 50
180.0
 51
0.0
  0
LINE
  5
395
330
1F
100
AcDbEntity
  8
2
  6
Continuous
 62
     1
100
AcDbLine
 10
375.6
 20
754.49
 30
0.0
 11
375.5
 21
755.79
 31
0.0
  0
LWPOLYLINE
  5
397
330
1F
100
AcDbEntity
  8
2
  6
Continuous
 62
     1
100
AcDbPolyline
 90
     3
 70
   128
 43
0.0
 10
370.5
 20
754.49
 10
370.7
 20
755.79
 10
375.5
 20
755.79
  0
LWPOLYLINE
  5
399
330
1F
100
AcDbEntity
  8
2
  6
Continuous
 62
     1
100
AcDbPolyline
 90
     4
 70
   129
 43
0.0
 10
380.4
 20
746.09
 10
378.2
 20
746.09
 10
378.2
 20
739.09
 10
380.4
 20
739.09
  0
LWPOLYLINE
  5
39B
330
1F
100
AcDbEntity
  8
2
  6
Continuous
 62
     1
100
AcDbPolyline
 90
     4
 70
   129
 43
0.0
 10
368.0
 20
745.99
 10
365.8
 20
745.99
 10
365.8
 20
738.99
 10
368.0
 20
738.99
  0
ARC
  5
39C
330
1F
100
AcDbEntity
  8
2
  6
Continuous
 62
     1
100
AcDbCircle
 10
360.6
 20
760.99
 30
0.0
 40
1.0
100
AcDbArc
 50
90.0
 51
180.0
  0
LINE
  5
39D
330
1F
100
AcDbEntity
  8
2
  6
Continuous
 62
     1
100
AcDbLine
 10
385.6
 20
761.99
 30
0.0
 11
360.6
 21
761.99
 31
0.0
  0
ARC
  5
39E
330
1F
100
AcDbEntity
  8
2
  6
Continuous
 62
     1
100
AcDbCircle
 10
385.6
 20
760.99
 30
0.0
 40
1.0
100
AcDbArc
 50
0.0
 51
90.0
  0
LINE
  5
39F
330
1F
100
AcDbEntity
  8
2
  6
Continuous
 62
     1
100
AcDbLine
 10
386.6
 20
732.99
 30
0.0
 11
386.6
 21
760.99
 31
0.0
  0
ARC
  5
3A0
330
1F
100
AcDbEntity
  8
2
  6
Continuous
 62
     1
100
AcDbCircle
 10
385.6
 20
732.99
 30
0.0
 40
1.0
100
AcDbArc
 50
270.0
 51
0.0
  0
LINE
  5
3A1
330
1F
100
AcDbEntity
  8
2
  6
Continuous
 62
     1
100
AcDbLine
 10
359.6
 20
760.99
 30
0.0
 11
359.6
 21
732.99
 31
0.0
  0
LINE
  5
3A2
330
1F
100
AcDbEntity
  8
2
  6
Continuous
 62
     1
100
AcDbLine
 10
360.6
 20
731.99
 30
0.0
 11
385.6
 21
731.99
 31
0.0
  0
ARC
  5
3A3
330
1F
100
AcDbEntity
  8
2
  6
Continuous
 62
     1
100
AcDbCircle
 10
360.6
 20
732.99
 30
0.0
 40
1.0
100
AcDbArc
 50
180.0
 51
270.0
  0
TEXT
  5
3A4
330
1F
100
AcDbEntity
  8
2
  6
Continuous
 62
     1
100
AcDbText
 10
382.235
 20
730.62
 30
0.0
 40
4.5
  1
ＡＣ　ＯＵＴ
 50
180.0
 41
0.866666667
  7
KANJI5
100
AcDbText
  0
LINE
  5
3A5
330
1F
100
AcDbEntity
  8
2
  6
Continuous
 62
     1
100
AcDbLine
 10
362.027179223
 20
729.262820777
 30
0.0
 11
354.316703608
 21
722.895045201
 31
0.0
  0
LINE
  5
3A6
330
1F
100
AcDbEntity
  8
2
  6
Continuous
 62
     1
100
AcDbLine
 10
362.027179223
 20
729.262820777
 30
0.0
 11
358.533599253
 21
719.892927555
 31
0.0
  0
LINE
  5
3A7
330
1F
100
AcDbEntity
  8
2
  6
Continuous
 62
     1
100
AcDbLine
 10
362.027179223
 20
729.262820777
 30
0.0
 11
340.477179223
 21
698.992820777
 31
0.0
  0
ARC
  5
3A8
330
1F
100
AcDbEntity
  8
2
  6
Continuous
 62
     1
100
AcDbCircle
 10
451.3754834
 20
743.74
 30
0.0
 40
4.0
100
AcDbArc
 50
135.0
 51
225.0
  0
ARC
  5
3A9
330
1F
100
AcDbEntity
  8
2
  6
Continuous
 62
     1
100
AcDbCircle
 10
451.3754834
 20
743.74
 30
0.0
 40
2.4
100
AcDbArc
 50
134.999742417
 51
224.999635723
  0
LINE
  5
3AA
330
1F
100
AcDbEntity
  8
2
  6
Continuous
 62
     1
100
AcDbLine
 10
457.785533906
 20
731.673095244
 30
0.0
 11
448.547056275
 21
740.911572875
 31
0.0
  0
LINE
  5
3AB
330
1F
100
AcDbEntity
  8
2
  6
Continuous
 62
     1
100
AcDbLine
 10
458.916912385
 20
732.804458465
 30
0.0
 11
449.678416335
 21
742.042954515
 31
0.0
  0
LINE
  5
3AC
330
1F
100
AcDbEntity
  8
2
  6
Continuous
 62
     1
100
AcDbLine
 10
448.547056275
 20
746.568427125
 30
0.0
 11
457.785533906
 21
755.806904756
 31
0.0
  0
LINE
  5
3AD
330
1F
100
AcDbEntity
  8
2
  6
Continuous
 62
     1
100
AcDbLine
 10
449.678434754
 20
745.437063904
 30
0.0
 11
458.916912385
 21
754.675541535
 31
0.0
  0
ARC
  5
3AE
330
1F
100
AcDbEntity
  8
2
  6
Continuous
 62
     1
100
AcDbCircle
 10
442.3245166
 20
743.74
 30
0.0
 40
4.0
100
AcDbArc
 50
315.0
 51
45.0
  0
ARC
  5
3AF
330
1F
100
AcDbEntity
  8
2
  6
Continuous
 62
     1
100
AcDbCircle
 10
442.3245166
 20
743.74
 30
0.0
 40
2.4
100
AcDbArc
 50
315.000364277
 51
45.000257583
  0
LINE
  5
3B0
330
1F
100
AcDbEntity
  8
2
  6
Continuous
 62
     1
100
AcDbLine
 10
435.914466094
 20
731.673095244
 30
0.0
 11
445.152943725
 21
740.911572875
 31
0.0
  0
LINE
  5
3B1
330
1F
100
AcDbEntity
  8
2
  6
Continuous
 62
     1
100
AcDbLine
 10
434.783087615
 20
732.804458465
 30
0.0
 11
444.021583665
 21
742.042954515
 31
0.0
  0
LINE
  5
3B2
330
1F
100
AcDbEntity
  8
2
  6
Continuous
 62
     1
100
AcDbLine
 10
445.152943725
 20
746.568427125
 30
0.0
 11
435.914466094
 21
755.806904756
 31
0.0
  0
LINE
  5
3B3
330
1F
100
AcDbEntity
  8
2
  6
Continuous
 62
     1
100
AcDbLine
 10
444.021565246
 20
745.437063904
 30
0.0
 11
434.783087615
 21
754.675541535
 31
0.0
  0
ARC
  5
3B4
330
1F
100
AcDbEntity
  8
2
  6
Continuous
 62
     1
100
AcDbCircle
 10
446.85
 20
743.74
 30
0.0
 40
14.6
100
AcDbArc
 50
138.141067918
 51
221.858932082
  0
ARC
  5
3B5
330
1F
100
AcDbEntity
  8
2
  6
Continuous
 62
     1
100
AcDbCircle
 10
446.85
 20
743.74
 30
0.0
 40
13.0
100
AcDbArc
 50
138.528123341
 51
221.471876659
  0
ARC
  5
3B6
330
1F
100
AcDbEntity
  8
2
  6
Continuous
 62
     1
100
AcDbCircle
 10
446.85
 20
743.74
 30
0.0
 40
8.6
100
AcDbArc
 50
140.337556849
 51
219.662443151
  0
ARC
  5
3B7
330
1F
100
AcDbEntity
  8
2
  6
Continuous
 62
     1
100
AcDbCircle
 10
446.85
 20
743.74
 30
0.0
 40
7.0
100
AcDbArc
 50
141.562427869
 51
218.437572131
  0
ARC
  5
3B8
330
1F
100
AcDbEntity
  8
2
  6
Continuous
 62
     1
100
AcDbCircle
 10
446.85
 20
743.74
 30
0.0
 40
7.0
100
AcDbArc
 50
231.562427869
 51
308.437572131
  0
ARC
  5
3B9
330
1F
100
AcDbEntity
  8
2
  6
Continuous
 62
     1
100
AcDbCircle
 10
446.85
 20
743.74
 30
0.0
 40
8.6
100
AcDbArc
 50
230.337556849
 51
309.662443151
  0
ARC
  5
3BA
330
1F
100
AcDbEntity
  8
2
  6
Continuous
 62
     1
100
AcDbCircle
 10
446.85
 20
743.74
 30
0.0
 40
13.0
100
AcDbArc
 50
228.528123341
 51
311.471876659
  0
ARC
  5
3BB
330
1F
100
AcDbEntity
  8
2
  6
Continuous
 62
     1
100
AcDbCircle
 10
446.85
 20
743.74
 30
0.0
 40
14.6
100
AcDbArc
 50
228.141067918
 51
311.858932082
  0
ARC
  5
3BC
330
1F
100
AcDbEntity
  8
2
  6
Continuous
 62
     1
100
AcDbCircle
 10
446.85
 20
743.74
 30
0.0
 40
7.0
100
AcDbArc
 50
51.562427869
 51
128.437572131
  0
ARC
  5
3BD
330
1F
100
AcDbEntity
  8
2
  6
Continuous
 62
     1
100
AcDbCircle
 10
446.85
 20
743.74
 30
0.0
 40
7.0
100
AcDbArc
 50
321.562427869
 51
38.437572131
  0
ARC
  5
3BE
330
1F
100
AcDbEntity
  8
2
  6
Continuous
 62
     1
100
AcDbCircle
 10
446.85
 20
743.74
 30
0.0
 40
8.6
100
AcDbArc
 50
50.337556849
 51
129.662443151
  0
ARC
  5
3BF
330
1F
100
AcDbEntity
  8
2
  6
Continuous
 62
     1
100
AcDbCircle
 10
446.85
 20
743.74
 30
0.0
 40
8.6
100
AcDbArc
 50
320.337556849
 51
39.662443151
  0
ARC
  5
3C0
330
1F
100
AcDbEntity
  8
2
  6
Continuous
 62
     1
100
AcDbCircle
 10
446.85
 20
743.74
 30
0.0
 40
13.0
100
AcDbArc
 50
48.528123341
 51
131.471876659
  0
ARC
  5
3C1
330
1F
100
AcDbEntity
  8
2
  6
Continuous
 62
     1
100
AcDbCircle
 10
446.85
 20
743.74
 30
0.0
 40
13.0
100
AcDbArc
 50
318.528123341
 51
41.471876659
  0
ARC
  5
3C2
330
1F
100
AcDbEntity
  8
2
  6
Continuous
 62
     1
100
AcDbCircle
 10
446.85
 20
743.74
 30
0.0
 40
14.6
100
AcDbArc
 50
48.141067918
 51
131.858932082
  0
ARC
  5
3C3
330
1F
100
AcDbEntity
  8
2
  6
Continuous
 62
     1
100
AcDbCircle
 10
446.85
 20
743.74
 30
0.0
 40
14.6
100
AcDbArc
 50
318.141067918
 51
41.858932082
  0
CIRCLE
  5
3C4
330
1F
100
AcDbEntity
  8
2
  6
Continuous
 62
     1
100
AcDbCircle
 10
430.85
 20
727.74
 30
0.0
 40
4.0
  0
CIRCLE
  5
3C5
330
1F
100
AcDbEntity
  8
2
  6
Continuous
 62
     1
100
AcDbCircle
 10
430.85
 20
727.74
 30
0.0
 40
3.5
  0
LINE
  5
3C6
330
1F
100
AcDbEntity
  8
2
  6
Continuous
 62
     1
100
AcDbLine
 10
430.0563126
 20
731.660466849
 30
0.0
 11
430.85
 21
732.283349848
 31
0.0
  0
LINE
  5
3C7
330
1F
100
AcDbEntity
  8
2
  6
Continuous
 62
     1
100
AcDbLine
 10
431.436595389
 20
731.696754459
 30
0.0
 11
430.85
 21
732.283349848
 31
0.0
  0
ARC
  5
3C8
330
1F
100
AcDbEntity
  8
2
  6
Continuous
 62
     1
100
AcDbCircle
 10
439.45
 20
728.137561338
 30
0.0
 40
6.6
100
AcDbArc
 50
135.000093666
 51
156.120371709
  0
ARC
  5
3C9
330
1F
100
AcDbEntity
  8
2
  6
Continuous
 62
     1
100
AcDbCircle
 10
439.45
 20
728.137561338
 30
0.0
 40
5.0
100
AcDbArc
 50
135.0
 51
167.543560868
  0
LINE
  5
3CA
330
1F
100
AcDbEntity
  8
2
  6
Continuous
 62
     1
100
AcDbLine
 10
432.682820777
 20
725.907179223
 30
0.0
 11
429.017179223
 21
729.572820777
 31
0.0
  0
LINE
  5
3CB
330
1F
100
AcDbEntity
  8
2
  6
Continuous
 62
     1
100
AcDbLine
 10
429.017179223
 20
725.907179223
 30
0.0
 11
432.682820777
 21
729.572820777
 31
0.0
  0
CIRCLE
  5
3CC
330
1F
100
AcDbEntity
  8
2
  6
Continuous
 62
     1
100
AcDbCircle
 10
462.85
 20
727.74
 30
0.0
 40
4.0
  0
CIRCLE
  5
3CD
330
1F
100
AcDbEntity
  8
2
  6
Continuous
 62
     1
100
AcDbCircle
 10
462.85
 20
727.74
 30
0.0
 40
3.5
  0
LINE
  5
3CE
330
1F
100
AcDbEntity
  8
2
  6
Continuous
 62
     1
100
AcDbLine
 10
464.682820777
 20
725.907179223
 30
0.0
 11
461.017179223
 21
729.572820777
 31
0.0
  0
LINE
  5
3CF
330
1F
100
AcDbEntity
  8
2
  6
Continuous
 62
     1
100
AcDbLine
 10
461.017179223
 20
725.907179223
 30
0.0
 11
464.682820777
 21
729.572820777
 31
0.0
  0
ARC
  5
3D0
330
1F
100
AcDbEntity
  8
2
  6
Continuous
 62
     1
100
AcDbCircle
 10
454.25
 20
728.137561338
 30
0.0
 40
5.0
100
AcDbArc
 50
12.456439132
 51
45.0
  0
ARC
  5
3D1
330
1F
100
AcDbEntity
  8
2
  6
Continuous
 62
     1
100
AcDbCircle
 10
454.25
 20
728.137561338
 30
0.0
 40
6.6
100
AcDbArc
 50
23.879628291
 51
44.999906334
  0
LINE
  5
3D2
330
1F
100
AcDbEntity
  8
2
  6
Continuous
 62
     1
100
AcDbLine
 10
462.263404611
 20
731.696754459
 30
0.0
 11
462.85
 21
732.283349848
 31
0.0
  0
LINE
  5
3D3
330
1F
100
AcDbEntity
  8
2
  6
Continuous
 62
     1
100
AcDbLine
 10
463.6436874
 20
731.660466849
 30
0.0
 11
462.85
 21
732.283349848
 31
0.0
  0
CIRCLE
  5
3D4
330
1F
100
AcDbEntity
  8
2
  6
Continuous
 62
     1
100
AcDbCircle
 10
430.85
 20
759.74
 30
0.0
 40
4.0
  0
CIRCLE
  5
3D5
330
1F
100
AcDbEntity
  8
2
  6
Continuous
 62
     1
100
AcDbCircle
 10
430.85
 20
759.74
 30
0.0
 40
3.5
  0
LINE
  5
3D6
330
1F
100
AcDbEntity
  8
2
  6
Continuous
 62
     1
100
AcDbLine
 10
432.682820777
 20
757.907179223
 30
0.0
 11
429.017179223
 21
761.572820777
 31
0.0
  0
LINE
  5
3D7
330
1F
100
AcDbEntity
  8
2
  6
Continuous
 62
     1
100
AcDbLine
 10
429.017179223
 20
757.907179223
 30
0.0
 11
432.682820777
 21
761.572820777
 31
0.0
  0
CIRCLE
  5
3D8
330
1F
100
AcDbEntity
  8
2
  6
Continuous
 62
     1
100
AcDbCircle
 10
462.85
 20
759.74
 30
0.0
 40
4.0
  0
CIRCLE
  5
3D9
330
1F
100
AcDbEntity
  8
2
  6
Continuous
 62
     1
100
AcDbCircle
 10
462.85
 20
759.74
 30
0.0
 40
3.5
  0
LINE
  5
3DA
330
1F
100
AcDbEntity
  8
2
  6
Continuous
 62
     1
100
AcDbLine
 10
464.682820777
 20
757.907179223
 30
0.0
 11
461.017179223
 21
761.572820777
 31
0.0
  0
LINE
  5
3DB
330
1F
100
AcDbEntity
  8
2
  6
Continuous
 62
     1
100
AcDbLine
 10
461.017179223
 20
757.907179223
 30
0.0
 11
464.682820777
 21
761.572820777
 31
0.0
  0
LINE
  5
3DC
330
1F
100
AcDbEntity
  8
2
  6
Continuous
 62
     1
100
AcDbLine
 10
431.436595389
 20
755.783245541
 30
0.0
 11
430.85
 21
755.196650152
 31
0.0
  0
LINE
  5
3DD
330
1F
100
AcDbEntity
  8
2
  6
Continuous
 62
     1
100
AcDbLine
 10
430.0563126
 20
755.819533151
 30
0.0
 11
430.85
 21
755.196650152
 31
0.0
  0
ARC
  5
3DE
330
1F
100
AcDbEntity
  8
2
  6
Continuous
 62
     1
100
AcDbCircle
 10
439.45
 20
759.342438662
 30
0.0
 40
6.6
100
AcDbArc
 50
203.879628291
 51
224.999906334
  0
ARC
  5
3DF
330
1F
100
AcDbEntity
  8
2
  6
Continuous
 62
     1
100
AcDbCircle
 10
439.45
 20
759.342438662
 30
0.0
 40
5.0
100
AcDbArc
 50
192.456439132
 51
225.0
  0
ARC
  5
3E0
330
1F
100
AcDbEntity
  8
2
  6
Continuous
 62
     1
100
AcDbCircle
 10
454.25
 20
759.342438662
 30
0.0
 40
6.6
100
AcDbArc
 50
315.000093666
 51
336.120371709
  0
LINE
  5
3E1
330
1F
100
AcDbEntity
  8
2
  6
Continuous
 62
     1
100
AcDbLine
 10
462.263404611
 20
755.783245541
 30
0.0
 11
462.85
 21
755.196650152
 31
0.0
  0
LINE
  5
3E2
330
1F
100
AcDbEntity
  8
2
  6
Continuous
 62
     1
100
AcDbLine
 10
463.6436874
 20
755.819533151
 30
0.0
 11
462.85
 21
755.196650152
 31
0.0
  0
ARC
  5
3E3
330
1F
100
AcDbEntity
  8
2
  6
Continuous
 62
     1
100
AcDbCircle
 10
454.25
 20
759.342438662
 30
0.0
 40
5.0
100
AcDbArc
 50
315.0
 51
347.543560868
  0
ARC
  5
3E4
330
1F
100
AcDbEntity
  8
2
  6
Continuous
 62
     1
100
AcDbCircle
 10
446.85
 20
743.74
 30
0.0
 40
19.0
100
AcDbArc
 50
319.659596314
 51
40.340403686
  0
ARC
  5
3E5
330
1F
100
AcDbEntity
  8
2
  6
Continuous
 62
     1
100
AcDbCircle
 10
446.85
 20
743.74
 30
0.0
 40
19.0
100
AcDbArc
 50
49.746970894
 51
130.244318097
  0
ARC
  5
3E6
330
1F
100
AcDbEntity
  8
2
  6
Continuous
 62
     1
100
AcDbCircle
 10
446.85
 20
743.74
 30
0.0
 40
19.0
100
AcDbArc
 50
229.746970894
 51
310.253029106
  0
ARC
  5
3E7
330
1F
100
AcDbEntity
  8
2
  6
Continuous
 62
     1
100
AcDbCircle
 10
446.85
 20
743.74
 30
0.0
 40
19.0
100
AcDbArc
 50
139.659596314
 51
220.340403686
  0
LWPOLYLINE
  5
3E9
330
1F
100
AcDbEntity
  8
2
  6
Continuous
 62
     1
100
AcDbPolyline
 90
     4
 70
   129
 43
0.0
 10
413.35
 20
747.04
 10
413.35
 20
748.54
 10
398.85
 20
748.54
 10
398.85
 20
747.04
  0
LINE
  5
3EA
330
1F
100
AcDbEntity
  8
2
  6
Continuous
 62
     1
100
AcDbLine
 10
398.85
 20
748.54
 30
0.0
 11
413.35
 21
748.54
 31
0.0
  0
LINE
  5
3EB
330
1F
100
AcDbEntity
  8
2
  6
Continuous
 62
     1
100
AcDbLine
 10
398.85
 20
758.64
 30
0.0
 11
413.35
 21
758.64
 31
0.0
  0
LWPOLYLINE
  5
3ED
330
1F
100
AcDbEntity
  8
2
  6
Continuous
 62
     1
100
AcDbPolyline
 90
     4
 70
   129
 43
0.0
 10
413.35
 20
748.54
 10
413.35
 20
753.59
 10
398.85
 20
753.59
 10
398.85
 20
748.54
  0
LINE
  5
3EE
330
1F
100
AcDbEntity
  8
2
  6
Continuous
 62
     1
100
AcDbLine
 10
399.85
 20
747.04
 30
0.0
 11
412.55
 21
747.04
 31
0.0
  0
CIRCLE
  5
3EF
330
1F
100
AcDbEntity
  8
2
  6
Continuous
 62
     1
100
AcDbCircle
 10
402.85
 20
756.115
 30
0.0
 40
2.0
  0
LINE
  5
3F0
330
1F
100
AcDbEntity
  8
2
  6
Continuous
 62
     1
100
AcDbLine
 10
410.75
 20
754.34
 30
0.0
 11
410.75
 21
757.84
 31
0.0
  0
LWPOLYLINE
  5
3F2
330
1F
100
AcDbEntity
  8
2
  6
Continuous
 62
     1
100
AcDbPolyline
 90
     4
 70
   128
 43
0.0
 10
410.75
 20
757.84
 10
407.75
 20
757.84
 10
407.75
 20
754.34
 10
410.75
 20
754.34
  0
CIRCLE
  5
3F3
330
1F
100
AcDbEntity
  8
2
  6
Continuous
 62
     1
100
AcDbCircle
 10
402.85
 20
751.065
 30
0.0
 40
2.0
  0
LINE
  5
3F4
330
1F
100
AcDbEntity
  8
2
  6
Continuous
 62
     1
100
AcDbLine
 10
410.75
 20
749.29
 30
0.0
 11
410.75
 21
752.79
 31
0.0
  0
LWPOLYLINE
  5
3F6
330
1F
100
AcDbEntity
  8
2
  6
Continuous
 62
     1
100
AcDbPolyline
 90
     4
 70
   128
 43
0.0
 10
410.75
 20
752.79
 10
407.75
 20
752.79
 10
407.75
 20
749.29
 10
410.75
 20
749.29
  0
LINE
  5
3F7
330
1F
100
AcDbEntity
  8
2
  6
Continuous
 62
     1
100
AcDbLine
 10
398.85
 20
758.64
 30
0.0
 11
398.85
 21
748.54
 31
0.0
  0
LINE
  5
3F8
330
1F
100
AcDbEntity
  8
2
  6
Continuous
 62
     1
100
AcDbLine
 10
399.85
 20
758.64
 30
0.0
 11
399.85
 21
747.04
 31
0.0
  0
LINE
  5
3F9
330
1F
100
AcDbEntity
  8
2
  6
Continuous
 62
     1
100
AcDbLine
 10
412.55
 20
747.04
 30
0.0
 11
412.55
 21
758.64
 31
0.0
  0
LINE
  5
3FA
330
1F
100
AcDbEntity
  8
2
  6
Continuous
 62
     1
100
AcDbLine
 10
413.35
 20
748.54
 30
0.0
 11
413.35
 21
758.64
 31
0.0
  0
LWPOLYLINE
  5
3FC
330
1F
100
AcDbEntity
  8
2
  6
Continuous
 62
     1
100
AcDbPolyline
 90
     4
 70
   129
 43
0.0
 10
413.35
 20
734.44
 10
413.35
 20
735.94
 10
398.85
 20
735.94
 10
398.85
 20
734.44
  0
LINE
  5
3FD
330
1F
100
AcDbEntity
  8
2
  6
Continuous
 62
     1
100
AcDbLine
 10
398.85
 20
735.94
 30
0.0
 11
413.35
 21
735.94
 31
0.0
  0
LINE
  5
3FE
330
1F
100
AcDbEntity
  8
2
  6
Continuous
 62
     1
100
AcDbLine
 10
398.85
 20
746.04
 30
0.0
 11
413.35
 21
746.04
 31
0.0
  0
LWPOLYLINE
  5
400
330
1F
100
AcDbEntity
  8
2
  6
Continuous
 62
     1
100
AcDbPolyline
 90
     4
 70
   129
 43
0.0
 10
413.35
 20
735.94
 10
413.35
 20
740.99
 10
398.85
 20
740.99
 10
398.85
 20
735.94
  0
LINE
  5
401
330
1F
100
AcDbEntity
  8
2
  6
Continuous
 62
     1
100
AcDbLine
 10
399.85
 20
734.44
 30
0.0
 11
412.55
 21
734.44
 31
0.0
  0
CIRCLE
  5
402
330
1F
100
AcDbEntity
  8
2
  6
Continuous
 62
     1
100
AcDbCircle
 10
402.85
 20
743.515
 30
0.0
 40
2.0
  0
LINE
  5
403
330
1F
100
AcDbEntity
  8
2
  6
Continuous
 62
     1
100
AcDbLine
 10
410.75
 20
741.74
 30
0.0
 11
410.75
 21
745.24
 31
0.0
  0
LWPOLYLINE
  5
405
330
1F
100
AcDbEntity
  8
2
  6
Continuous
 62
     1
100
AcDbPolyline
 90
     4
 70
   128
 43
0.0
 10
410.75
 20
745.24
 10
407.75
 20
745.24
 10
407.75
 20
741.74
 10
410.75
 20
741.74
  0
CIRCLE
  5
406
330
1F
100
AcDbEntity
  8
2
  6
Continuous
 62
     1
100
AcDbCircle
 10
402.85
 20
738.465
 30
0.0
 40
2.0
  0
LINE
  5
407
330
1F
100
AcDbEntity
  8
2
  6
Continuous
 62
     1
100
AcDbLine
 10
410.75
 20
736.69
 30
0.0
 11
410.75
 21
740.19
 31
0.0
  0
LWPOLYLINE
  5
409
330
1F
100
AcDbEntity
  8
2
  6
Continuous
 62
     1
100
AcDbPolyline
 90
     4
 70
   128
 43
0.0
 10
410.75
 20
740.19
 10
407.75
 20
740.19
 10
407.75
 20
736.69
 10
410.75
 20
736.69
  0
LINE
  5
40A
330
1F
100
AcDbEntity
  8
2
  6
Continuous
 62
     1
100
AcDbLine
 10
398.85
 20
746.04
 30
0.0
 11
398.85
 21
735.94
 31
0.0
  0
LINE
  5
40B
330
1F
100
AcDbEntity
  8
2
  6
Continuous
 62
     1
100
AcDbLine
 10
399.85
 20
746.04
 30
0.0
 11
399.85
 21
734.44
 31
0.0
  0
LINE
  5
40C
330
1F
100
AcDbEntity
  8
2
  6
Continuous
 62
     1
100
AcDbLine
 10
412.55
 20
734.44
 30
0.0
 11
412.55
 21
746.04
 31
0.0
  0
LINE
  5
40D
330
1F
100
AcDbEntity
  8
2
  6
Continuous
 62
     1
100
AcDbLine
 10
413.35
 20
735.94
 30
0.0
 11
413.35
 21
746.04
 31
0.0
  0
LINE
  5
40E
330
1F
100
AcDbEntity
  8
2
  6
Continuous
 62
     1
100
AcDbLine
 10
416.35
 20
751.09
 30
0.0
 11
418.35
 21
751.09
 31
0.0
  0
LINE
  5
40F
330
1F
100
AcDbEntity
  8
2
  6
Continuous
 62
     1
100
AcDbLine
 10
418.35
 20
755.99
 30
0.0
 11
416.35
 21
755.99
 31
0.0
  0
LINE
  5
410
330
1F
100
AcDbEntity
  8
2
  6
Continuous
 62
     1
100
AcDbLine
 10
418.35
 20
751.09
 30
0.0
 11
418.35
 21
755.99
 31
0.0
  0
LINE
  5
411
330
1F
100
AcDbEntity
  8
2
  6
Continuous
 62
     1
100
AcDbLine
 10
418.35
 20
753.44
 30
0.0
 11
420.85
 21
753.44
 31
0.0
  0
LINE
  5
412
330
1F
100
AcDbEntity
  8
2
  6
Continuous
 62
     1
100
AcDbLine
 10
420.85
 20
753.44
 30
0.0
 11
420.85
 21
759.74
 31
0.0
  0
TEXT
  5
413
330
1F
100
AcDbEntity
  8
2
  6
Continuous
 62
     1
100
AcDbText
 10
424.07
 20
763.98
 30
0.0
 40
3.75
  1
ＲＣ
 50
180.0
 41
0.92
  7
KANJI6
100
AcDbText
  0
TEXT
  5
415
330
1F
100
AcDbEntity
  8
2
  6
Continuous
 62
     1
100
AcDbText
 10
397.39
 20
752.79
 30
0.0
 40
3.75
  1
＋
 50
180.0
 41
0.92
  7
KANJI6
100
AcDbText
  0
TEXT
  5
416
330
1F
100
AcDbEntity
  8
2
  6
Continuous
 62
     1
100
AcDbText
 10
397.36
 20
757.78
 30
0.0
 40
3.75
  1
－
 50
180.0
 41
0.92
  7
KANJI6
100
AcDbText
  0
LINE
  5
417
330
1F
100
AcDbEntity
  8
2
  6
Continuous
 62
     1
100
AcDbLine
 10
416.35
 20
743.84
 30
0.0
 11
418.35
 21
743.84
 31
0.0
  0
LINE
  5
418
330
1F
100
AcDbEntity
  8
2
  6
Continuous
 62
     1
100
AcDbLine
 10
418.35
 20
738.84
 30
0.0
 11
416.35
 21
738.84
 31
0.0
  0
LINE
  5
419
330
1F
100
AcDbEntity
  8
2
  6
Continuous
 62
     1
100
AcDbLine
 10
418.35
 20
738.84
 30
0.0
 11
418.35
 21
743.84
 31
0.0
  0
LINE
  5
41A
330
1F
100
AcDbEntity
  8
2
  6
Continuous
 62
     1
100
AcDbLine
 10
418.35
 20
741.34
 30
0.0
 11
420.85
 21
741.34
 31
0.0
  0
LINE
  5
41B
330
1F
100
AcDbEntity
  8
2
  6
Continuous
 62
     1
100
AcDbLine
 10
420.85
 20
733.34
 30
0.0
 11
420.85
 21
741.34
 31
0.0
  0
TEXT
  5
41C
330
1F
100
AcDbEntity
  8
2
  6
Continuous
 62
     1
100
AcDbText
 10
424.14
 20
732.36
 30
0.0
 40
3.75
  1
ＡＬＡＲＭ
 50
180.0
 41
0.92
  7
KANJI6
100
AcDbText
  0
LINE
  5
41D
330
1F
100
AcDbEntity
  8
2
  6
Continuous
 62
     1
100
AcDbLine
 10
406.507179223
 20
761.572820777
 30
0.0
 11
413.492038094
 21
768.729059073
 31
0.0
  0
LINE
  5
41E
330
1F
100
AcDbEntity
  8
2
  6
Continuous
 62
     1
100
AcDbLine
 10
406.507179223
 20
761.572820777
 30
0.0
 11
408.978125299
 21
771.262734372
 31
0.0
  0
LINE
  5
41F
330
1F
100
AcDbEntity
  8
2
  6
Continuous
 62
     1
100
AcDbLine
 10
406.507179223
 20
761.572820777
 30
0.0
 11
431.137179223
 21
805.452820777
 31
0.0
  0
LINE
  5
420
330
1F
100
AcDbEntity
  8
2
  6
Continuous
 62
     1
100
AcDbLine
 10
406.507179223
 20
732.322820777
 30
0.0
 11
410.23218182
 21
723.042499896
 31
0.0
  0
LINE
  5
421
330
1F
100
AcDbEntity
  8
2
  6
Continuous
 62
     1
100
AcDbLine
 10
406.507179223
 20
732.322820777
 30
0.0
 11
414.373286542
 21
726.148328437
 31
0.0
  0
LINE
  5
422
330
1F
100
AcDbEntity
  8
2
  6
Continuous
 62
     1
100
AcDbLine
 10
406.507179223
 20
732.322820777
 30
0.0
 11
431.137179223
 21
699.482820777
 31
0.0
  0
ARC
  5
423
330
1F
100
AcDbEntity
  8
2
  6
Continuous
 62
     1
100
AcDbCircle
 10
511.3754834
 20
743.74
 30
0.0
 40
4.0
100
AcDbArc
 50
135.0
 51
225.0
  0
ARC
  5
424
330
1F
100
AcDbEntity
  8
2
  6
Continuous
 62
     1
100
AcDbCircle
 10
511.3754834
 20
743.74
 30
0.0
 40
2.4
100
AcDbArc
 50
134.999742417
 51
224.999635723
  0
LINE
  5
425
330
1F
100
AcDbEntity
  8
2
  6
Continuous
 62
     1
100
AcDbLine
 10
517.785533906
 20
731.673095244
 30
0.0
 11
508.547056275
 21
740.911572875
 31
0.0
  0
LINE
  5
426
330
1F
100
AcDbEntity
  8
2
  6
Continuous
 62
     1
100
AcDbLine
 10
518.916912385
 20
732.804458465
 30
0.0
 11
509.678416335
 21
742.042954515
 31
0.0
  0
LINE
  5
427
330
1F
100
AcDbEntity
  8
2
  6
Continuous
 62
     1
100
AcDbLine
 10
508.547056275
 20
746.568427125
 30
0.0
 11
517.785533906
 21
755.806904756
 31
0.0
  0
LINE
  5
428
330
1F
100
AcDbEntity
  8
2
  6
Continuous
 62
     1
100
AcDbLine
 10
509.678434754
 20
745.437063904
 30
0.0
 11
518.916912385
 21
754.675541535
 31
0.0
  0
ARC
  5
429
330
1F
100
AcDbEntity
  8
2
  6
Continuous
 62
     1
100
AcDbCircle
 10
502.3245166
 20
743.74
 30
0.0
 40
4.0
100
AcDbArc
 50
315.0
 51
45.0
  0
ARC
  5
42A
330
1F
100
AcDbEntity
  8
2
  6
Continuous
 62
     1
100
AcDbCircle
 10
502.3245166
 20
743.74
 30
0.0
 40
2.4
100
AcDbArc
 50
315.000364277
 51
45.000257583
  0
LINE
  5
42B
330
1F
100
AcDbEntity
  8
2
  6
Continuous
 62
     1
100
AcDbLine
 10
495.914466094
 20
731.673095244
 30
0.0
 11
505.152943725
 21
740.911572875
 31
0.0
  0
LINE
  5
42C
330
1F
100
AcDbEntity
  8
2
  6
Continuous
 62
     1
100
AcDbLine
 10
494.783087615
 20
732.804458465
 30
0.0
 11
504.021583665
 21
742.042954515
 31
0.0
  0
LINE
  5
42D
330
1F
100
AcDbEntity
  8
2
  6
Continuous
 62
     1
100
AcDbLine
 10
505.152943725
 20
746.568427125
 30
0.0
 11
495.914466094
 21
755.806904756
 31
0.0
  0
LINE
  5
42E
330
1F
100
AcDbEntity
  8
2
  6
Continuous
 62
     1
100
AcDbLine
 10
504.021565246
 20
745.437063904
 30
0.0
 11
494.783087615
 21
754.675541535
 31
0.0
  0
ARC
  5
42F
330
1F
100
AcDbEntity
  8
2
  6
Continuous
 62
     1
100
AcDbCircle
 10
506.85
 20
743.74
 30
0.0
 40
14.6
100
AcDbArc
 50
138.141067918
 51
221.858932082
  0
ARC
  5
430
330
1F
100
AcDbEntity
  8
2
  6
Continuous
 62
     1
100
AcDbCircle
 10
506.85
 20
743.74
 30
0.0
 40
13.0
100
AcDbArc
 50
138.528123341
 51
221.471876659
  0
ARC
  5
431
330
1F
100
AcDbEntity
  8
2
  6
Continuous
 62
     1
100
AcDbCircle
 10
506.85
 20
743.74
 30
0.0
 40
8.6
100
AcDbArc
 50
140.337556849
 51
219.662443151
  0
ARC
  5
432
330
1F
100
AcDbEntity
  8
2
  6
Continuous
 62
     1
100
AcDbCircle
 10
506.85
 20
743.74
 30
0.0
 40
7.0
100
AcDbArc
 50
141.562427869
 51
218.437572131
  0
ARC
  5
433
330
1F
100
AcDbEntity
  8
2
  6
Continuous
 62
     1
100
AcDbCircle
 10
506.85
 20
743.74
 30
0.0
 40
7.0
100
AcDbArc
 50
231.562427869
 51
308.437572131
  0
ARC
  5
434
330
1F
100
AcDbEntity
  8
2
  6
Continuous
 62
     1
100
AcDbCircle
 10
506.85
 20
743.74
 30
0.0
 40
8.6
100
AcDbArc
 50
230.337556849
 51
309.662443151
  0
ARC
  5
435
330
1F
100
AcDbEntity
  8
2
  6
Continuous
 62
     1
100
AcDbCircle
 10
506.85
 20
743.74
 30
0.0
 40
13.0
100
AcDbArc
 50
228.528123341
 51
311.471876659
  0
ARC
  5
436
330
1F
100
AcDbEntity
  8
2
  6
Continuous
 62
     1
100
AcDbCircle
 10
506.85
 20
743.74
 30
0.0
 40
14.6
100
AcDbArc
 50
228.141067918
 51
311.858932082
  0
ARC
  5
437
330
1F
100
AcDbEntity
  8
2
  6
Continuous
 62
     1
100
AcDbCircle
 10
506.85
 20
743.74
 30
0.0
 40
7.0
100
AcDbArc
 50
51.562427869
 51
128.437572131
  0
ARC
  5
438
330
1F
100
AcDbEntity
  8
2
  6
Continuous
 62
     1
100
AcDbCircle
 10
506.85
 20
743.74
 30
0.0
 40
7.0
100
AcDbArc
 50
321.562427869
 51
38.437572131
  0
ARC
  5
439
330
1F
100
AcDbEntity
  8
2
  6
Continuous
 62
     1
100
AcDbCircle
 10
506.85
 20
743.74
 30
0.0
 40
8.6
100
AcDbArc
 50
50.337556849
 51
129.662443151
  0
ARC
  5
43A
330
1F
100
AcDbEntity
  8
2
  6
Continuous
 62
     1
100
AcDbCircle
 10
506.85
 20
743.74
 30
0.0
 40
8.6
100
AcDbArc
 50
320.337556849
 51
39.662443151
  0
ARC
  5
43B
330
1F
100
AcDbEntity
  8
2
  6
Continuous
 62
     1
100
AcDbCircle
 10
506.85
 20
743.74
 30
0.0
 40
13.0
100
AcDbArc
 50
48.528123341
 51
131.471876659
  0
ARC
  5
43C
330
1F
100
AcDbEntity
  8
2
  6
Continuous
 62
     1
100
AcDbCircle
 10
506.85
 20
743.74
 30
0.0
 40
13.0
100
AcDbArc
 50
318.528123341
 51
41.471876659
  0
ARC
  5
43D
330
1F
100
AcDbEntity
  8
2
  6
Continuous
 62
     1
100
AcDbCircle
 10
506.85
 20
743.74
 30
0.0
 40
14.6
100
AcDbArc
 50
48.141067918
 51
131.858932082
  0
ARC
  5
43E
330
1F
100
AcDbEntity
  8
2
  6
Continuous
 62
     1
100
AcDbCircle
 10
506.85
 20
743.74
 30
0.0
 40
14.6
100
AcDbArc
 50
318.141067918
 51
41.858932082
  0
CIRCLE
  5
43F
330
1F
100
AcDbEntity
  8
2
  6
Continuous
 62
     1
100
AcDbCircle
 10
490.85
 20
727.74
 30
0.0
 40
4.0
  0
CIRCLE
  5
440
330
1F
100
AcDbEntity
  8
2
  6
Continuous
 62
     1
100
AcDbCircle
 10
490.85
 20
727.74
 30
0.0
 40
3.5
  0
LINE
  5
441
330
1F
100
AcDbEntity
  8
2
  6
Continuous
 62
     1
100
AcDbLine
 10
490.0563126
 20
731.660466849
 30
0.0
 11
490.85
 21
732.283349848
 31
0.0
  0
LINE
  5
442
330
1F
100
AcDbEntity
  8
2
  6
Continuous
 62
     1
100
AcDbLine
 10
491.436595389
 20
731.696754459
 30
0.0
 11
490.85
 21
732.283349848
 31
0.0
  0
ARC
  5
443
330
1F
100
AcDbEntity
  8
2
  6
Continuous
 62
     1
100
AcDbCircle
 10
499.45
 20
728.137561338
 30
0.0
 40
6.6
100
AcDbArc
 50
135.000093666
 51
156.120371709
  0
ARC
  5
444
330
1F
100
AcDbEntity
  8
2
  6
Continuous
 62
     1
100
AcDbCircle
 10
499.45
 20
728.137561338
 30
0.0
 40
5.0
100
AcDbArc
 50
135.0
 51
167.543560868
  0
LINE
  5
445
330
1F
100
AcDbEntity
  8
2
  6
Continuous
 62
     1
100
AcDbLine
 10
492.682820777
 20
725.907179223
 30
0.0
 11
489.017179223
 21
729.572820777
 31
0.0
  0
LINE
  5
446
330
1F
100
AcDbEntity
  8
2
  6
Continuous
 62
     1
100
AcDbLine
 10
489.017179223
 20
725.907179223
 30
0.0
 11
492.682820777
 21
729.572820777
 31
0.0
  0
CIRCLE
  5
447
330
1F
100
AcDbEntity
  8
2
  6
Continuous
 62
     1
100
AcDbCircle
 10
522.85
 20
727.74
 30
0.0
 40
4.0
  0
CIRCLE
  5
448
330
1F
100
AcDbEntity
  8
2
  6
Continuous
 62
     1
100
AcDbCircle
 10
522.85
 20
727.74
 30
0.0
 40
3.5
  0
LINE
  5
449
330
1F
100
AcDbEntity
  8
2
  6
Continuous
 62
     1
100
AcDbLine
 10
524.682820777
 20
725.907179223
 30
0.0
 11
521.017179223
 21
729.572820777
 31
0.0
  0
LINE
  5
44A
330
1F
100
AcDbEntity
  8
2
  6
Continuous
 62
     1
100
AcDbLine
 10
521.017179223
 20
725.907179223
 30
0.0
 11
524.682820777
 21
729.572820777
 31
0.0
  0
ARC
  5
44B
330
1F
100
AcDbEntity
  8
2
  6
Continuous
 62
     1
100
AcDbCircle
 10
514.25
 20
728.137561338
 30
0.0
 40
5.0
100
AcDbArc
 50
12.456439132
 51
45.0
  0
ARC
  5
44C
330
1F
100
AcDbEntity
  8
2
  6
Continuous
 62
     1
100
AcDbCircle
 10
514.25
 20
728.137561338
 30
0.0
 40
6.6
100
AcDbArc
 50
23.879628291
 51
44.999906334
  0
LINE
  5
44D
330
1F
100
AcDbEntity
  8
2
  6
Continuous
 62
     1
100
AcDbLine
 10
522.263404611
 20
731.696754459
 30
0.0
 11
522.85
 21
732.283349848
 31
0.0
  0
LINE
  5
44E
330
1F
100
AcDbEntity
  8
2
  6
Continuous
 62
     1
100
AcDbLine
 10
523.6436874
 20
731.660466849
 30
0.0
 11
522.85
 21
732.283349848
 31
0.0
  0
CIRCLE
  5
44F
330
1F
100
AcDbEntity
  8
2
  6
Continuous
 62
     1
100
AcDbCircle
 10
490.85
 20
759.74
 30
0.0
 40
4.0
  0
CIRCLE
  5
450
330
1F
100
AcDbEntity
  8
2
  6
Continuous
 62
     1
100
AcDbCircle
 10
490.85
 20
759.74
 30
0.0
 40
3.5
  0
LINE
  5
451
330
1F
100
AcDbEntity
  8
2
  6
Continuous
 62
     1
100
AcDbLine
 10
492.682820777
 20
757.907179223
 30
0.0
 11
489.017179223
 21
761.572820777
 31
0.0
  0
LINE
  5
452
330
1F
100
AcDbEntity
  8
2
  6
Continuous
 62
     1
100
AcDbLine
 10
489.017179223
 20
757.907179223
 30
0.0
 11
492.682820777
 21
761.572820777
 31
0.0
  0
CIRCLE
  5
453
330
1F
100
AcDbEntity
  8
2
  6
Continuous
 62
     1
100
AcDbCircle
 10
522.85
 20
759.74
 30
0.0
 40
4.0
  0
CIRCLE
  5
454
330
1F
100
AcDbEntity
  8
2
  6
Continuous
 62
     1
100
AcDbCircle
 10
522.85
 20
759.74
 30
0.0
 40
3.5
  0
LINE
  5
455
330
1F
100
AcDbEntity
  8
2
  6
Continuous
 62
     1
100
AcDbLine
 10
524.682820777
 20
757.907179223
 30
0.0
 11
521.017179223
 21
761.572820777
 31
0.0
  0
LINE
  5
456
330
1F
100
AcDbEntity
  8
2
  6
Continuous
 62
     1
100
AcDbLine
 10
521.017179223
 20
757.907179223
 30
0.0
 11
524.682820777
 21
761.572820777
 31
0.0
  0
LINE
  5
457
330
1F
100
AcDbEntity
  8
2
  6
Continuous
 62
     1
100
AcDbLine
 10
491.436595389
 20
755.783245541
 30
0.0
 11
490.85
 21
755.196650152
 31
0.0
  0
LINE
  5
458
330
1F
100
AcDbEntity
  8
2
  6
Continuous
 62
     1
100
AcDbLine
 10
490.0563126
 20
755.819533151
 30
0.0
 11
490.85
 21
755.196650152
 31
0.0
  0
ARC
  5
459
330
1F
100
AcDbEntity
  8
2
  6
Continuous
 62
     1
100
AcDbCircle
 10
499.45
 20
759.342438662
 30
0.0
 40
6.6
100
AcDbArc
 50
203.879628291
 51
224.999906334
  0
ARC
  5
45A
330
1F
100
AcDbEntity
  8
2
  6
Continuous
 62
     1
100
AcDbCircle
 10
499.45
 20
759.342438662
 30
0.0
 40
5.0
100
AcDbArc
 50
192.456439132
 51
225.0
  0
ARC
  5
45B
330
1F
100
AcDbEntity
  8
2
  6
Continuous
 62
     1
100
AcDbCircle
 10
514.25
 20
759.342438662
 30
0.0
 40
6.6
100
AcDbArc
 50
315.000093666
 51
336.120371709
  0
LINE
  5
45C
330
1F
100
AcDbEntity
  8
2
  6
Continuous
 62
     1
100
AcDbLine
 10
522.263404611
 20
755.783245541
 30
0.0
 11
522.85
 21
755.196650152
 31
0.0
  0
LINE
  5
45D
330
1F
100
AcDbEntity
  8
2
  6
Continuous
 62
     1
100
AcDbLine
 10
523.6436874
 20
755.819533151
 30
0.0
 11
522.85
 21
755.196650152
 31
0.0
  0
ARC
  5
45E
330
1F
100
AcDbEntity
  8
2
  6
Continuous
 62
     1
100
AcDbCircle
 10
514.25
 20
759.342438662
 30
0.0
 40
5.0
100
AcDbArc
 50
315.0
 51
347.543560868
  0
ARC
  5
45F
330
1F
100
AcDbEntity
  8
2
  6
Continuous
 62
     1
100
AcDbCircle
 10
506.85
 20
743.74
 30
0.0
 40
19.0
100
AcDbArc
 50
229.746970894
 51
310.253029106
  0
ARC
  5
460
330
1F
100
AcDbEntity
  8
2
  6
Continuous
 62
     1
100
AcDbCircle
 10
506.85
 20
743.74
 30
0.0
 40
19.0
100
AcDbArc
 50
319.659596314
 51
40.340403686
  0
ARC
  5
461
330
1F
100
AcDbEntity
  8
2
  6
Continuous
 62
     1
100
AcDbCircle
 10
506.85
 20
743.74
 30
0.0
 40
19.0
100
AcDbArc
 50
139.659596314
 51
220.340403686
  0
ARC
  5
462
330
1F
100
AcDbEntity
  8
2
  6
Continuous
 62
     1
100
AcDbCircle
 10
506.85
 20
743.74
 30
0.0
 40
19.0
100
AcDbArc
 50
49.746970894
 51
130.253029106
  0
ARC
  5
463
330
1F
100
AcDbEntity
  8
2
  6
Continuous
 62
     1
100
AcDbCircle
 10
571.3754834
 20
743.74
 30
0.0
 40
4.0
100
AcDbArc
 50
135.0
 51
225.0
  0
ARC
  5
464
330
1F
100
AcDbEntity
  8
2
  6
Continuous
 62
     1
100
AcDbCircle
 10
571.3754834
 20
743.74
 30
0.0
 40
2.4
100
AcDbArc
 50
134.999742417
 51
224.999635723
  0
LINE
  5
465
330
1F
100
AcDbEntity
  8
2
  6
Continuous
 62
     1
100
AcDbLine
 10
577.785533906
 20
731.673095244
 30
0.0
 11
568.547056275
 21
740.911572875
 31
0.0
  0
LINE
  5
466
330
1F
100
AcDbEntity
  8
2
  6
Continuous
 62
     1
100
AcDbLine
 10
578.916912385
 20
732.804458465
 30
0.0
 11
569.678416335
 21
742.042954515
 31
0.0
  0
LINE
  5
467
330
1F
100
AcDbEntity
  8
2
  6
Continuous
 62
     1
100
AcDbLine
 10
568.547056275
 20
746.568427125
 30
0.0
 11
577.785533906
 21
755.806904756
 31
0.0
  0
LINE
  5
468
330
1F
100
AcDbEntity
  8
2
  6
Continuous
 62
     1
100
AcDbLine
 10
569.678434754
 20
745.437063904
 30
0.0
 11
578.916912385
 21
754.675541535
 31
0.0
  0
ARC
  5
469
330
1F
100
AcDbEntity
  8
2
  6
Continuous
 62
     1
100
AcDbCircle
 10
562.3245166
 20
743.74
 30
0.0
 40
4.0
100
AcDbArc
 50
315.0
 51
45.0
  0
ARC
  5
46A
330
1F
100
AcDbEntity
  8
2
  6
Continuous
 62
     1
100
AcDbCircle
 10
562.3245166
 20
743.74
 30
0.0
 40
2.4
100
AcDbArc
 50
315.000364277
 51
45.000257583
  0
LINE
  5
46B
330
1F
100
AcDbEntity
  8
2
  6
Continuous
 62
     1
100
AcDbLine
 10
555.914466094
 20
731.673095244
 30
0.0
 11
565.152943725
 21
740.911572875
 31
0.0
  0
LINE
  5
46C
330
1F
100
AcDbEntity
  8
2
  6
Continuous
 62
     1
100
AcDbLine
 10
554.783087615
 20
732.804458465
 30
0.0
 11
564.021583665
 21
742.042954515
 31
0.0
  0
LINE
  5
46D
330
1F
100
AcDbEntity
  8
2
  6
Continuous
 62
     1
100
AcDbLine
 10
565.152943725
 20
746.568427125
 30
0.0
 11
555.914466094
 21
755.806904756
 31
0.0
  0
LINE
  5
46E
330
1F
100
AcDbEntity
  8
2
  6
Continuous
 62
     1
100
AcDbLine
 10
564.021565246
 20
745.437063904
 30
0.0
 11
554.783087615
 21
754.675541535
 31
0.0
  0
ARC
  5
46F
330
1F
100
AcDbEntity
  8
2
  6
Continuous
 62
     1
100
AcDbCircle
 10
566.85
 20
743.74
 30
0.0
 40
14.6
100
AcDbArc
 50
138.141067918
 51
221.858932082
  0
ARC
  5
470
330
1F
100
AcDbEntity
  8
2
  6
Continuous
 62
     1
100
AcDbCircle
 10
566.85
 20
743.74
 30
0.0
 40
13.0
100
AcDbArc
 50
138.528123341
 51
221.471876659
  0
ARC
  5
471
330
1F
100
AcDbEntity
  8
2
  6
Continuous
 62
     1
100
AcDbCircle
 10
566.85
 20
743.74
 30
0.0
 40
8.6
100
AcDbArc
 50
140.337556849
 51
219.662443151
  0
ARC
  5
472
330
1F
100
AcDbEntity
  8
2
  6
Continuous
 62
     1
100
AcDbCircle
 10
566.85
 20
743.74
 30
0.0
 40
7.0
100
AcDbArc
 50
141.562427869
 51
218.437572131
  0
ARC
  5
473
330
1F
100
AcDbEntity
  8
2
  6
Continuous
 62
     1
100
AcDbCircle
 10
566.85
 20
743.74
 30
0.0
 40
7.0
100
AcDbArc
 50
231.562427869
 51
308.437572131
  0
ARC
  5
474
330
1F
100
AcDbEntity
  8
2
  6
Continuous
 62
     1
100
AcDbCircle
 10
566.85
 20
743.74
 30
0.0
 40
8.6
100
AcDbArc
 50
230.337556849
 51
309.662443151
  0
ARC
  5
475
330
1F
100
AcDbEntity
  8
2
  6
Continuous
 62
     1
100
AcDbCircle
 10
566.85
 20
743.74
 30
0.0
 40
13.0
100
AcDbArc
 50
228.528123341
 51
311.471876659
  0
ARC
  5
476
330
1F
100
AcDbEntity
  8
2
  6
Continuous
 62
     1
100
AcDbCircle
 10
566.85
 20
743.74
 30
0.0
 40
14.6
100
AcDbArc
 50
228.141067918
 51
311.858932082
  0
ARC
  5
477
330
1F
100
AcDbEntity
  8
2
  6
Continuous
 62
     1
100
AcDbCircle
 10
566.85
 20
743.74
 30
0.0
 40
7.0
100
AcDbArc
 50
51.562427869
 51
128.437572131
  0
ARC
  5
478
330
1F
100
AcDbEntity
  8
2
  6
Continuous
 62
     1
100
AcDbCircle
 10
566.85
 20
743.74
 30
0.0
 40
7.0
100
AcDbArc
 50
321.562427869
 51
38.437572131
  0
ARC
  5
479
330
1F
100
AcDbEntity
  8
2
  6
Continuous
 62
     1
100
AcDbCircle
 10
566.85
 20
743.74
 30
0.0
 40
8.6
100
AcDbArc
 50
50.337556849
 51
129.662443151
  0
ARC
  5
47A
330
1F
100
AcDbEntity
  8
2
  6
Continuous
 62
     1
100
AcDbCircle
 10
566.85
 20
743.74
 30
0.0
 40
8.6
100
AcDbArc
 50
320.337556849
 51
39.662443151
  0
ARC
  5
47B
330
1F
100
AcDbEntity
  8
2
  6
Continuous
 62
     1
100
AcDbCircle
 10
566.85
 20
743.74
 30
0.0
 40
13.0
100
AcDbArc
 50
48.528123341
 51
131.471876659
  0
ARC
  5
47C
330
1F
100
AcDbEntity
  8
2
  6
Continuous
 62
     1
100
AcDbCircle
 10
566.85
 20
743.74
 30
0.0
 40
13.0
100
AcDbArc
 50
318.528123341
 51
41.471876659
  0
ARC
  5
47D
330
1F
100
AcDbEntity
  8
2
  6
Continuous
 62
     1
100
AcDbCircle
 10
566.85
 20
743.74
 30
0.0
 40
14.6
100
AcDbArc
 50
48.141067918
 51
131.858932082
  0
ARC
  5
47E
330
1F
100
AcDbEntity
  8
2
  6
Continuous
 62
     1
100
AcDbCircle
 10
566.85
 20
743.74
 30
0.0
 40
14.6
100
AcDbArc
 50
318.141067918
 51
41.858932082
  0
CIRCLE
  5
47F
330
1F
100
AcDbEntity
  8
2
  6
Continuous
 62
     1
100
AcDbCircle
 10
550.85
 20
727.74
 30
0.0
 40
4.0
  0
CIRCLE
  5
480
330
1F
100
AcDbEntity
  8
2
  6
Continuous
 62
     1
100
AcDbCircle
 10
550.85
 20
727.74
 30
0.0
 40
3.5
  0
LINE
  5
481
330
1F
100
AcDbEntity
  8
2
  6
Continuous
 62
     1
100
AcDbLine
 10
550.0563126
 20
731.660466849
 30
0.0
 11
550.85
 21
732.283349848
 31
0.0
  0
LINE
  5
482
330
1F
100
AcDbEntity
  8
2
  6
Continuous
 62
     1
100
AcDbLine
 10
551.436595389
 20
731.696754459
 30
0.0
 11
550.85
 21
732.283349848
 31
0.0
  0
ARC
  5
483
330
1F
100
AcDbEntity
  8
2
  6
Continuous
 62
     1
100
AcDbCircle
 10
559.45
 20
728.137561338
 30
0.0
 40
6.6
100
AcDbArc
 50
135.000093666
 51
156.120371709
  0
ARC
  5
484
330
1F
100
AcDbEntity
  8
2
  6
Continuous
 62
     1
100
AcDbCircle
 10
559.45
 20
728.137561338
 30
0.0
 40
5.0
100
AcDbArc
 50
135.0
 51
167.543560868
  0
LINE
  5
485
330
1F
100
AcDbEntity
  8
2
  6
Continuous
 62
     1
100
AcDbLine
 10
552.682820777
 20
725.907179223
 30
0.0
 11
549.017179223
 21
729.572820777
 31
0.0
  0
LINE
  5
486
330
1F
100
AcDbEntity
  8
2
  6
Continuous
 62
     1
100
AcDbLine
 10
549.017179223
 20
725.907179223
 30
0.0
 11
552.682820777
 21
729.572820777
 31
0.0
  0
CIRCLE
  5
487
330
1F
100
AcDbEntity
  8
2
  6
Continuous
 62
     1
100
AcDbCircle
 10
582.85
 20
727.74
 30
0.0
 40
4.0
  0
CIRCLE
  5
488
330
1F
100
AcDbEntity
  8
2
  6
Continuous
 62
     1
100
AcDbCircle
 10
582.85
 20
727.74
 30
0.0
 40
3.5
  0
LINE
  5
489
330
1F
100
AcDbEntity
  8
2
  6
Continuous
 62
     1
100
AcDbLine
 10
584.682820777
 20
725.907179223
 30
0.0
 11
581.017179223
 21
729.572820777
 31
0.0
  0
LINE
  5
48A
330
1F
100
AcDbEntity
  8
2
  6
Continuous
 62
     1
100
AcDbLine
 10
581.017179223
 20
725.907179223
 30
0.0
 11
584.682820777
 21
729.572820777
 31
0.0
  0
ARC
  5
48B
330
1F
100
AcDbEntity
  8
2
  6
Continuous
 62
     1
100
AcDbCircle
 10
574.25
 20
728.137561338
 30
0.0
 40
5.0
100
AcDbArc
 50
12.456439132
 51
45.0
  0
ARC
  5
48C
330
1F
100
AcDbEntity
  8
2
  6
Continuous
 62
     1
100
AcDbCircle
 10
574.25
 20
728.137561338
 30
0.0
 40
6.6
100
AcDbArc
 50
23.879628291
 51
44.999906334
  0
LINE
  5
48D
330
1F
100
AcDbEntity
  8
2
  6
Continuous
 62
     1
100
AcDbLine
 10
582.263404611
 20
731.696754459
 30
0.0
 11
582.85
 21
732.283349848
 31
0.0
  0
LINE
  5
48E
330
1F
100
AcDbEntity
  8
2
  6
Continuous
 62
     1
100
AcDbLine
 10
583.6436874
 20
731.660466849
 30
0.0
 11
582.85
 21
732.283349848
 31
0.0
  0
CIRCLE
  5
48F
330
1F
100
AcDbEntity
  8
2
  6
Continuous
 62
     1
100
AcDbCircle
 10
550.85
 20
759.74
 30
0.0
 40
4.0
  0
CIRCLE
  5
490
330
1F
100
AcDbEntity
  8
2
  6
Continuous
 62
     1
100
AcDbCircle
 10
550.85
 20
759.74
 30
0.0
 40
3.5
  0
LINE
  5
491
330
1F
100
AcDbEntity
  8
2
  6
Continuous
 62
     1
100
AcDbLine
 10
552.682820777
 20
757.907179223
 30
0.0
 11
549.017179223
 21
761.572820777
 31
0.0
  0
LINE
  5
492
330
1F
100
AcDbEntity
  8
2
  6
Continuous
 62
     1
100
AcDbLine
 10
549.017179223
 20
757.907179223
 30
0.0
 11
552.682820777
 21
761.572820777
 31
0.0
  0
CIRCLE
  5
493
330
1F
100
AcDbEntity
  8
2
  6
Continuous
 62
     1
100
AcDbCircle
 10
582.85
 20
759.74
 30
0.0
 40
4.0
  0
CIRCLE
  5
494
330
1F
100
AcDbEntity
  8
2
  6
Continuous
 62
     1
100
AcDbCircle
 10
582.85
 20
759.74
 30
0.0
 40
3.5
  0
LINE
  5
495
330
1F
100
AcDbEntity
  8
2
  6
Continuous
 62
     1
100
AcDbLine
 10
584.682820777
 20
757.907179223
 30
0.0
 11
581.017179223
 21
761.572820777
 31
0.0
  0
LINE
  5
496
330
1F
100
AcDbEntity
  8
2
  6
Continuous
 62
     1
100
AcDbLine
 10
581.017179223
 20
757.907179223
 30
0.0
 11
584.682820777
 21
761.572820777
 31
0.0
  0
LINE
  5
497
330
1F
100
AcDbEntity
  8
2
  6
Continuous
 62
     1
100
AcDbLine
 10
551.436595389
 20
755.783245541
 30
0.0
 11
550.85
 21
755.196650152
 31
0.0
  0
LINE
  5
498
330
1F
100
AcDbEntity
  8
2
  6
Continuous
 62
     1
100
AcDbLine
 10
550.0563126
 20
755.819533151
 30
0.0
 11
550.85
 21
755.196650152
 31
0.0
  0
ARC
  5
499
330
1F
100
AcDbEntity
  8
2
  6
Continuous
 62
     1
100
AcDbCircle
 10
559.45
 20
759.342438662
 30
0.0
 40
6.6
100
AcDbArc
 50
203.879628291
 51
224.999906334
  0
ARC
  5
49A
330
1F
100
AcDbEntity
  8
2
  6
Continuous
 62
     1
100
AcDbCircle
 10
559.45
 20
759.342438662
 30
0.0
 40
5.0
100
AcDbArc
 50
192.456439132
 51
225.0
  0
ARC
  5
49B
330
1F
100
AcDbEntity
  8
2
  6
Continuous
 62
     1
100
AcDbCircle
 10
574.25
 20
759.342438662
 30
0.0
 40
6.6
100
AcDbArc
 50
315.000093666
 51
336.120371709
  0
LINE
  5
49C
330
1F
100
AcDbEntity
  8
2
  6
Continuous
 62
     1
100
AcDbLine
 10
582.263404611
 20
755.783245541
 30
0.0
 11
582.85
 21
755.196650152
 31
0.0
  0
LINE
  5
49D
330
1F
100
AcDbEntity
  8
2
  6
Continuous
 62
     1
100
AcDbLine
 10
583.6436874
 20
755.819533151
 30
0.0
 11
582.85
 21
755.196650152
 31
0.0
  0
ARC
  5
49E
330
1F
100
AcDbEntity
  8
2
  6
Continuous
 62
     1
100
AcDbCircle
 10
574.25
 20
759.342438662
 30
0.0
 40
5.0
100
AcDbArc
 50
315.0
 51
347.543560868
  0
ARC
  5
49F
330
1F
100
AcDbEntity
  8
2
  6
Continuous
 62
     1
100
AcDbCircle
 10
566.85
 20
743.74
 30
0.0
 40
19.0
100
AcDbArc
 50
229.746970894
 51
310.257996909
  0
ARC
  5
4A0
330
1F
100
AcDbEntity
  8
2
  6
Continuous
 62
     1
100
AcDbCircle
 10
566.85
 20
743.74
 30
0.0
 40
19.0
100
AcDbArc
 50
319.659596314
 51
40.340403686
  0
ARC
  5
4A1
330
1F
100
AcDbEntity
  8
2
  6
Continuous
 62
     1
100
AcDbCircle
 10
566.85
 20
743.74
 30
0.0
 40
19.0
100
AcDbArc
 50
139.659596314
 51
220.340403686
  0
ARC
  5
4A2
330
1F
100
AcDbEntity
  8
2
  6
Continuous
 62
     1
100
AcDbCircle
 10
566.85
 20
743.74
 30
0.0
 40
19.0
100
AcDbArc
 50
49.746970894
 51
130.243259058
  0
LINE
  5
4A3
330
1F
100
AcDbEntity
  8
2
  6
Continuous
 62
     1
100
AcDbLine
 10
602.85
 20
729.34
 30
0.0
 11
663.85
 21
729.34
 31
0.0
  0
LINE
  5
4A4
330
1F
100
AcDbEntity
  8
2
  6
Continuous
 62
     1
100
AcDbLine
 10
663.85
 20
759.34
 30
0.0
 11
602.85
 21
759.34
 31
0.0
  0
LWPOLYLINE
  5
4A6
330
1F
100
AcDbEntity
  8
2
  6
Continuous
 62
     1
100
AcDbPolyline
 90
     4
 70
   129
 43
0.0
 10
647.85
 20
729.34
 10
647.85
 20
759.34
 10
634.85
 20
759.34
 10
634.85
 20
729.34
  0
LWPOLYLINE
  5
4A8
330
1F
100
AcDbEntity
  8
2
  6
Continuous
 62
     1
100
AcDbPolyline
 90
     4
 70
   129
 43
0.0
 10
631.85
 20
729.34
 10
631.85
 20
759.34
 10
618.85
 20
759.34
 10
618.85
 20
729.34
  0
LINE
  5
4A9
330
1F
100
AcDbEntity
  8
2
  6
Continuous
 62
     1
100
AcDbLine
 10
634.85
 20
758.34
 30
0.0
 11
631.85
 21
758.34
 31
0.0
  0
LINE
  5
4AA
330
1F
100
AcDbEntity
  8
2
  6
Continuous
 62
     1
100
AcDbLine
 10
631.85
 20
730.34
 30
0.0
 11
634.85
 21
730.34
 31
0.0
  0
CIRCLE
  5
4AB
330
1F
100
AcDbEntity
  8
2
  6
Continuous
 62
     1
100
AcDbCircle
 10
641.35
 20
744.34
 30
0.0
 40
5.0
  0
CIRCLE
  5
4AC
330
1F
100
AcDbEntity
  8
2
  6
Continuous
 62
     1
100
AcDbCircle
 10
625.35
 20
744.34
 30
0.0
 40
5.0
  0
CIRCLE
  5
4AD
330
1F
100
AcDbEntity
  8
2
  6
Continuous
 62
     1
100
AcDbCircle
 10
641.35
 20
744.34
 30
0.0
 40
5.75
  0
CIRCLE
  5
4AE
330
1F
100
AcDbEntity
  8
2
  6
Continuous
 62
     1
100
AcDbCircle
 10
625.35
 20
744.34
 30
0.0
 40
5.75
  0
LINE
  5
4AF
330
1F
100
AcDbEntity
  8
2
  6
Continuous
 62
     1
100
AcDbLine
 10
628.178427125
 20
741.511572875
 30
0.0
 11
622.521572875
 21
747.168427125
 31
0.0
  0
LINE
  5
4B0
330
1F
100
AcDbEntity
  8
2
  6
Continuous
 62
     1
100
AcDbLine
 10
622.521572875
 20
741.511572875
 30
0.0
 11
628.178427125
 21
747.168427125
 31
0.0
  0
LINE
  5
4B1
330
1F
100
AcDbEntity
  8
2
  6
Continuous
 62
     1
100
AcDbLine
 10
644.178427125
 20
741.511572875
 30
0.0
 11
638.521572875
 21
747.168427125
 31
0.0
  0
LINE
  5
4B2
330
1F
100
AcDbEntity
  8
2
  6
Continuous
 62
     1
100
AcDbLine
 10
638.521572875
 20
741.511572875
 30
0.0
 11
644.178427125
 21
747.168427125
 31
0.0
  0
LINE
  5
4B3
330
1F
100
AcDbEntity
  8
2
  6
Continuous
 62
     1
100
AcDbLine
 10
653.85
 20
750.09
 30
0.0
 11
663.85
 21
750.09
 31
0.0
  0
ARC
  5
4B4
330
1F
100
AcDbEntity
  8
2
  6
Continuous
 62
     1
100
AcDbCircle
 10
653.85
 20
749.09
 30
0.0
 40
1.0
100
AcDbArc
 50
90.0
 51
180.0
  0
LINE
  5
4B5
330
1F
100
AcDbEntity
  8
2
  6
Continuous
 62
     1
100
AcDbLine
 10
653.85
 20
738.59
 30
0.0
 11
663.85
 21
738.59
 31
0.0
  0
LINE
  5
4B6
330
1F
100
AcDbEntity
  8
2
  6
Continuous
 62
     1
100
AcDbLine
 10
652.85
 20
739.59
 30
0.0
 11
652.85
 21
749.09
 31
0.0
  0
ARC
  5
4B7
330
1F
100
AcDbEntity
  8
2
  6
Continuous
 62
     1
100
AcDbCircle
 10
653.85
 20
739.59
 30
0.0
 40
1.0
100
AcDbArc
 50
180.0
 51
270.0
  0
CIRCLE
  5
4B8
330
1F
100
AcDbEntity
  8
2
  6
Continuous
 62
     1
100
AcDbCircle
 10
658.85
 20
744.34
 30
0.0
 40
5.0
  0
LINE
  5
4B9
330
1F
100
AcDbEntity
  8
2
  6
Continuous
 62
     1
100
AcDbLine
 10
661.678427125
 20
741.511572875
 30
0.0
 11
656.021572875
 21
747.168427125
 31
0.0
  0
LINE
  5
4BA
330
1F
100
AcDbEntity
  8
2
  6
Continuous
 62
     1
100
AcDbLine
 10
656.021572875
 20
741.511572875
 30
0.0
 11
661.678427125
 21
747.168427125
 31
0.0
  0
CIRCLE
  5
4BB
330
1F
100
AcDbEntity
  8
2
  6
Continuous
 62
     1
100
AcDbCircle
 10
658.85
 20
744.34
 30
0.0
 40
5.75
  0
LINE
  5
4BC
330
1F
100
AcDbEntity
  8
2
  6
Continuous
 62
     1
100
AcDbLine
 10
663.85
 20
747.179454173
 30
0.0
 11
663.85
 21
759.34
 31
0.0
  0
LINE
  5
4BD
330
1F
100
AcDbEntity
  8
2
  6
Continuous
 62
     1
100
AcDbLine
 10
663.85
 20
729.34
 30
0.0
 11
663.85
 21
741.500545827
 31
0.0
  0
LINE
  5
4BE
330
1F
100
AcDbEntity
  8
2
  6
Continuous
 62
     1
100
AcDbLine
 10
612.85
 20
750.09
 30
0.0
 11
602.85
 21
750.09
 31
0.0
  0
ARC
  5
4BF
330
1F
100
AcDbEntity
  8
2
  6
Continuous
 62
     1
100
AcDbCircle
 10
612.85
 20
749.09
 30
0.0
 40
1.0
100
AcDbArc
 50
0.0
 51
90.0
  0
LINE
  5
4C0
330
1F
100
AcDbEntity
  8
2
  6
Continuous
 62
     1
100
AcDbLine
 10
612.85
 20
738.59
 30
0.0
 11
602.85
 21
738.59
 31
0.0
  0
LINE
  5
4C1
330
1F
100
AcDbEntity
  8
2
  6
Continuous
 62
     1
100
AcDbLine
 10
613.85
 20
739.59
 30
0.0
 11
613.85
 21
749.09
 31
0.0
  0
ARC
  5
4C2
330
1F
100
AcDbEntity
  8
2
  6
Continuous
 62
     1
100
AcDbCircle
 10
612.85
 20
739.59
 30
0.0
 40
1.0
100
AcDbArc
 50
270.0
 51
0.0
  0
CIRCLE
  5
4C3
330
1F
100
AcDbEntity
  8
2
  6
Continuous
 62
     1
100
AcDbCircle
 10
607.85
 20
744.34
 30
0.0
 40
5.0
  0
LINE
  5
4C4
330
1F
100
AcDbEntity
  8
2
  6
Continuous
 62
     1
100
AcDbLine
 10
605.021572875
 20
741.511572875
 30
0.0
 11
610.678427125
 21
747.168427125
 31
0.0
  0
LINE
  5
4C5
330
1F
100
AcDbEntity
  8
2
  6
Continuous
 62
     1
100
AcDbLine
 10
610.678427125
 20
741.511572875
 30
0.0
 11
605.021572875
 21
747.168427125
 31
0.0
  0
CIRCLE
  5
4C6
330
1F
100
AcDbEntity
  8
2
  6
Continuous
 62
     1
100
AcDbCircle
 10
607.85
 20
744.34
 30
0.0
 40
5.75
  0
LINE
  5
4C7
330
1F
100
AcDbEntity
  8
2
  6
Continuous
 62
     1
100
AcDbLine
 10
602.85
 20
747.179454173
 30
0.0
 11
602.85
 21
759.34
 31
0.0
  0
LINE
  5
4C8
330
1F
100
AcDbEntity
  8
2
  6
Continuous
 62
     1
100
AcDbLine
 10
602.85
 20
729.34
 30
0.0
 11
602.85
 21
741.500545827
 31
0.0
  0
ARC
  5
4C9
330
1F
100
AcDbEntity
  8
2
  6
Continuous
 62
     1
100
AcDbCircle
 10
625.35
 20
744.34
 30
0.0
 40
10.25
100
AcDbArc
 50
50.643301073
 51
129.356698927
  0
ARC
  5
4CA
330
1F
100
AcDbEntity
  8
2
  6
Continuous
 62
     1
100
AcDbCircle
 10
625.35
 20
744.34
 30
0.0
 40
10.25
100
AcDbArc
 50
230.643301073
 51
309.356698927
  0
ARC
  5
4CB
330
1F
100
AcDbEntity
  8
2
  6
Continuous
 62
     1
100
AcDbCircle
 10
641.35
 20
744.34
 30
0.0
 40
10.25
100
AcDbArc
 50
50.643301073
 51
129.356698927
  0
ARC
  5
4CC
330
1F
100
AcDbEntity
  8
2
  6
Continuous
 62
     1
100
AcDbCircle
 10
641.35
 20
744.34
 30
0.0
 40
10.25
100
AcDbArc
 50
230.643301073
 51
309.356698927
  0
LINE
  5
4CD
330
1F
100
AcDbEntity
  8
2
  6
Continuous
 62
     1
100
AcDbLine
 10
615.85
 20
738.34
 30
0.0
 11
615.85
 21
731.34
 31
0.0
  0
LINE
  5
4CE
330
1F
100
AcDbEntity
  8
2
  6
Continuous
 62
     1
100
AcDbLine
 10
650.85
 20
731.34
 30
0.0
 11
650.85
 21
738.34
 31
0.0
  0
LINE
  5
4CF
330
1F
100
AcDbEntity
  8
2
  6
Continuous
 62
     1
100
AcDbLine
 10
647.85
 20
738.34
 30
0.0
 11
650.85
 21
738.34
 31
0.0
  0
LINE
  5
4D0
330
1F
100
AcDbEntity
  8
2
  6
Continuous
 62
     1
100
AcDbLine
 10
615.85
 20
738.34
 30
0.0
 11
618.85
 21
738.34
 31
0.0
  0
LINE
  5
4D1
330
1F
100
AcDbEntity
  8
2
  6
Continuous
 62
     1
100
AcDbLine
 10
647.85
 20
731.34
 30
0.0
 11
650.85
 21
731.34
 31
0.0
  0
LINE
  5
4D2
330
1F
100
AcDbEntity
  8
2
  6
Continuous
 62
     1
100
AcDbLine
 10
615.85
 20
731.34
 30
0.0
 11
618.85
 21
731.34
 31
0.0
  0
CIRCLE
  5
4D3
330
1F
100
AcDbEntity
  8
2
  6
Continuous
 62
     1
100
AcDbCircle
 10
608.85
 20
754.34
 30
0.0
 40
2.0
  0
CIRCLE
  5
4D4
330
1F
100
AcDbEntity
  8
2
  6
Continuous
 62
     1
100
AcDbCircle
 10
608.85
 20
754.34
 30
0.0
 40
1.5
  0
CIRCLE
  5
4D5
330
1F
100
AcDbEntity
  8
2
  6
Continuous
 62
     1
100
AcDbCircle
 10
657.85
 20
734.34
 30
0.0
 40
1.5
  0
CIRCLE
  5
4D6
330
1F
100
AcDbEntity
  8
2
  6
Continuous
 62
     1
100
AcDbCircle
 10
657.85
 20
734.34
 30
0.0
 40
2.0
  0
TEXT
  5
4D7
330
1F
100
AcDbEntity
  8
2
  6
Continuous
 62
     1
100
AcDbText
 10
641.49
 20
765.05
 30
0.0
 40
4.5
  1
ＤＣ　ＩＮ
 50
180.0
 41
0.866666667
  7
KANJI5
100
AcDbText
  0
LINE
  5
4D8
330
1F
100
AcDbEntity
  8
2
  6
Continuous
 62
     1
100
AcDbLine
 10
651.74
 20
762.61
 30
0.0
 11
658.804679186
 21
769.687450671
 31
0.0
  0
LINE
  5
4D9
330
1F
100
AcDbEntity
  8
2
  6
Continuous
 62
     1
100
AcDbLine
 10
651.74
 20
762.61
 30
0.0
 11
654.319466309
 21
772.271591668
 31
0.0
  0
LINE
  5
4DA
330
1F
100
AcDbEntity
  8
2
  6
Continuous
 62
     1
100
AcDbLine
 10
651.74
 20
762.61
 30
0.0
 11
676.86
 21
806.21
 31
0.0
  0
TEXT
  5
4DB
330
1F
100
AcDbEntity
  8
2
  6
Continuous
 62
     1
100
AcDbText
 10
643.21
 20
728.76
 30
0.0
 40
4.5
  1
＋
 50
180.0
 41
0.866666667
  7
KANJI5
100
AcDbText
  0
TEXT
  5
4DC
330
1F
100
AcDbEntity
  8
2
  6
Continuous
 62
     1
100
AcDbText
 10
627.21
 20
728.76
 30
0.0
 40
4.5
  1
－
 50
180.0
 41
0.866666667
  7
KANJI5
100
AcDbText
  0
LINE
  5
4DD
330
1F
100
AcDbEntity
  8
2
  6
Continuous
 62
     1
100
AcDbLine
 10
679.85
 20
764.49
 30
0.0
 11
680.85
 21
764.402511336
 31
0.0
  0
LINE
  5
4DE
330
1F
100
AcDbEntity
  8
2
  6
Continuous
 62
     1
100
AcDbLine
 10
679.85
 20
758.19
 30
0.0
 11
680.85
 21
758.277488664
 31
0.0
  0
LINE
  5
4DF
330
1F
100
AcDbEntity
  8
2
  6
Continuous
 62
     1
100
AcDbLine
 10
680.85
 20
764.402511336
 30
0.0
 11
680.85
 21
758.277488664
 31
0.0
  0
ARC
  5
4E0
330
1F
100
AcDbEntity
  8
2
  6
Continuous
 62
     1
100
AcDbCircle
 10
676.089457952
 20
761.34
 30
0.0
 40
5.660542048
100
AcDbArc
 50
327.246358181
 51
32.75364182
  0
LINE
  5
4E1
330
1F
100
AcDbEntity
  8
2
  6
Continuous
 62
     2
100
AcDbLine
 10
680.05
 20
172.64
 30
0.0
 11
679.05
 21
173.64
 31
0.0
  0
LINE
  5
4E2
330
1F
100
AcDbEntity
  8
2
  6
Continuous
 62
     2
100
AcDbLine
 10
249.05
 20
173.64
 30
0.0
 11
679.05
 21
173.64
 31
0.0
  0
LINE
  5
4E3
330
1F
100
AcDbEntity
  8
2
  6
Continuous
 62
     2
100
AcDbLine
 10
248.05
 20
172.64
 30
0.0
 11
249.05
 21
173.64
 31
0.0
  0
LINE
  5
4E4
330
1F
100
AcDbEntity
  8
2
  6
Continuous
 62
     2
100
AcDbLine
 10
249.05
 20
173.94
 30
0.0
 11
679.05
 21
173.94
 31
0.0
  0
LWPOLYLINE
  5
4E6
330
1F
100
AcDbEntity
  8
2
  6
Continuous
 62
     2
100
AcDbPolyline
 90
     3
 70
   128
 43
0.0
 10
249.05
 20
173.94
 42
0.414211982
 10
248.05
 20
172.940005395
 42
0.0
 10
248.05
 20
130.54
 42
0.0
  0
ARC
  5
4E7
330
1F
100
AcDbEntity
  8
2
  6
Continuous
 62
     2
100
AcDbCircle
 10
679.05
 20
172.94
 30
0.0
 40
1.0
100
AcDbArc
 50
0.00015455
 51
90.0
  0
LINE
  5
4E8
330
1F
100
AcDbEntity
  8
2
  6
Continuous
 62
     2
100
AcDbLine
 10
680.05
 20
172.940002697
 30
0.0
 11
680.05
 21
130.54
 31
0.0
  0
LINE
  5
4E9
330
1F
100
AcDbEntity
  8
2
  6
Continuous
 62
     2
100
AcDbLine
 10
680.05
 20
173.94
 30
0.0
 11
680.05
 21
130.24
 31
0.0
  0
LINE
  5
4EA
330
1F
100
AcDbEntity
  8
2
  6
Continuous
 62
     2
100
AcDbLine
 10
695.05
 20
139.74
 30
0.0
 11
698.05
 21
139.74
 31
0.0
  0
ARC
  5
4EB
330
1F
100
AcDbEntity
  8
2
  6
Continuous
 62
     2
100
AcDbCircle
 10
695.05
 20
136.24
 30
0.0
 40
3.5
100
AcDbArc
 50
90.0
 51
270.0
  0
LWPOLYLINE
  5
4EE
330
1F
100
AcDbEntity
  8
2
  6
Continuous
 62
     2
100
AcDbPolyline
 90
     3
 70
   128
 43
0.0
 10
695.05
 20
132.74
 42
0.0
 10
698.05
 20
132.74
 42
1.0
 10
698.05
 20
139.74
 42
0.0
  0
LINE
  5
4EF
330
1F
100
AcDbEntity
  8
2
  6
Continuous
 62
     2
100
AcDbLine
 10
695.05
 20
171.44
 30
0.0
 11
698.05
 21
171.44
 31
0.0
  0
ARC
  5
4F0
330
1F
100
AcDbEntity
  8
2
  6
Continuous
 62
     2
100
AcDbCircle
 10
695.05
 20
167.94
 30
0.0
 40
3.5
100
AcDbArc
 50
90.0
 51
270.0
  0
LWPOLYLINE
  5
4F3
330
1F
100
AcDbEntity
  8
2
  6
Continuous
 62
     2
100
AcDbPolyline
 90
     3
 70
   128
 43
0.0
 10
695.05
 20
164.44
 42
0.0
 10
698.05
 20
164.44
 42
1.0
 10
698.05
 20
171.44
 42
0.0
  0
LINE
  5
4F4
330
1F
100
AcDbEntity
  8
2
  6
Continuous
 62
     2
100
AcDbLine
 10
248.05
 20
173.94
 30
0.0
 11
248.05
 21
130.24
 31
0.0
  0
LINE
  5
4F5
330
1F
100
AcDbEntity
  8
2
  6
Continuous
 62
     2
100
AcDbLine
 10
233.05
 20
139.74
 30
0.0
 11
230.05
 21
139.74
 31
0.0
  0
ARC
  5
4F6
330
1F
100
AcDbEntity
  8
2
  6
Continuous
 62
     2
100
AcDbCircle
 10
233.05
 20
136.24
 30
0.0
 40
3.5
100
AcDbArc
 50
270.0
 51
90.0
  0
LWPOLYLINE
  5
4F9
330
1F
100
AcDbEntity
  8
2
  6
Continuous
 62
     2
100
AcDbPolyline
 90
     3
 70
   128
 43
0.0
 10
233.05
 20
132.74
 42
0.0
 10
230.05
 20
132.74
 42
-1.0
 10
230.05
 20
139.74
 42
0.0
  0
LINE
  5
4FA
330
1F
100
AcDbEntity
  8
2
  6
Continuous
 62
     2
100
AcDbLine
 10
233.05
 20
171.44
 30
0.0
 11
230.05
 21
171.44
 31
0.0
  0
ARC
  5
4FB
330
1F
100
AcDbEntity
  8
2
  6
Continuous
 62
     2
100
AcDbCircle
 10
233.05
 20
167.94
 30
0.0
 40
3.5
100
AcDbArc
 50
270.0
 51
90.0
  0
LWPOLYLINE
  5
4FE
330
1F
100
AcDbEntity
  8
2
  6
Continuous
 62
     2
100
AcDbPolyline
 90
     3
 70
   128
 43
0.0
 10
233.05
 20
164.44
 42
0.0
 10
230.05
 20
164.44
 42
-1.0
 10
230.05
 20
171.44
 42
0.0
  0
LINE
  5
4FF
330
1F
100
AcDbEntity
  8
2
  6
Continuous
 62
     2
100
AcDbLine
 10
248.05
 20
173.94
 30
0.0
 11
226.05
 21
173.94
 31
0.0
  0
ARC
  5
500
330
1F
100
AcDbEntity
  8
2
  6
Continuous
 62
     2
100
AcDbCircle
 10
226.05
 20
170.94
 30
0.0
 40
3.0
100
AcDbArc
 50
90.0
 51
180.0
  0
LINE
  5
501
330
1F
100
AcDbEntity
  8
2
  6
Continuous
 62
     2
100
AcDbLine
 10
248.05
 20
130.24
 30
0.0
 11
226.05
 21
130.24
 31
0.0
  0
LINE
  5
502
330
1F
100
AcDbEntity
  8
2
  6
Continuous
 62
     2
100
AcDbLine
 10
223.05
 20
170.94
 30
0.0
 11
223.05
 21
133.24
 31
0.0
  0
ARC
  5
503
330
1F
100
AcDbEntity
  8
2
  6
Continuous
 62
     2
100
AcDbCircle
 10
226.05
 20
133.24
 30
0.0
 40
3.0
100
AcDbArc
 50
180.0
 51
270.0
  0
LINE
  5
504
330
1F
100
AcDbEntity
  8
2
  6
Continuous
 62
     2
100
AcDbLine
 10
680.05
 20
172.64
 30
0.0
 11
680.05
 21
130.94
 31
0.0
  0
LINE
  5
505
330
1F
100
AcDbEntity
  8
2
  6
Continuous
 62
     2
100
AcDbLine
 10
679.05
 20
129.94
 30
0.0
 11
680.05
 21
130.94
 31
0.0
  0
LINE
  5
506
330
1F
100
AcDbEntity
  8
2
  6
Continuous
 62
     2
100
AcDbLine
 10
248.05
 20
172.64
 30
0.0
 11
248.05
 21
130.94
 31
0.0
  0
LINE
  5
507
330
1F
100
AcDbEntity
  8
2
  6
Continuous
 62
     2
100
AcDbLine
 10
249.05
 20
129.94
 30
0.0
 11
679.05
 21
129.94
 31
0.0
  0
LINE
  5
508
330
1F
100
AcDbEntity
  8
2
  6
Continuous
 62
     2
100
AcDbLine
 10
248.05
 20
130.94
 30
0.0
 11
249.05
 21
129.94
 31
0.0
  0
LWPOLYLINE
  5
50B
330
1F
100
AcDbEntity
  8
2
  6
Continuous
 62
     2
100
AcDbPolyline
 90
     3
 70
   128
 43
0.0
 10
680.05
 20
173.94
 42
0.0
 10
702.05
 20
173.94
 42
-0.414213562
 10
705.05
 20
170.94
 42
0.0
  0
LINE
  5
50C
330
1F
100
AcDbEntity
  8
2
  6
Continuous
 62
     2
100
AcDbLine
 10
680.05
 20
130.24
 30
0.0
 11
702.05
 21
130.24
 31
0.0
  0
LINE
  5
50D
330
1F
100
AcDbEntity
  8
2
  6
Continuous
 62
     2
100
AcDbLine
 10
705.05
 20
170.94
 30
0.0
 11
705.05
 21
133.24
 31
0.0
  0
ARC
  5
50E
330
1F
100
AcDbEntity
  8
2
  6
Continuous
 62
     2
100
AcDbCircle
 10
702.05
 20
133.24
 30
0.0
 40
3.0
100
AcDbArc
 50
270.0
 51
0.0
  0
LINE
  5
50F
330
1F
100
AcDbEntity
  8
2
  6
Continuous
 62
     1
100
AcDbLine
 10
238.05
 20
136.24
 30
0.0
 11
225.05
 21
136.24
 31
0.0
  0
LINE
  5
510
330
1F
100
AcDbEntity
  8
2
  6
Continuous
 62
     1
100
AcDbLine
 10
231.55
 20
129.49
 30
0.0
 11
231.55
 21
142.99
 31
0.0
  0
LINE
  5
511
330
1F
100
AcDbEntity
  8
2
  6
Continuous
 62
     1
100
AcDbLine
 10
238.05
 20
167.94
 30
0.0
 11
225.05
 21
167.94
 31
0.0
  0
LINE
  5
512
330
1F
100
AcDbEntity
  8
2
  6
Continuous
 62
     1
100
AcDbLine
 10
231.55
 20
161.19
 30
0.0
 11
231.55
 21
174.69
 31
0.0
  0
LINE
  5
513
330
1F
100
AcDbEntity
  8
2
  6
Continuous
 62
     1
100
AcDbLine
 10
703.05
 20
167.94
 30
0.0
 11
690.05
 21
167.94
 31
0.0
  0
LINE
  5
514
330
1F
100
AcDbEntity
  8
2
  6
Continuous
 62
     1
100
AcDbLine
 10
696.55
 20
161.19
 30
0.0
 11
696.55
 21
174.69
 31
0.0
  0
LINE
  5
515
330
1F
100
AcDbEntity
  8
2
  6
Continuous
 62
     1
100
AcDbLine
 10
703.05
 20
136.24
 30
0.0
 11
690.05
 21
136.24
 31
0.0
  0
LINE
  5
516
330
1F
100
AcDbEntity
  8
2
  6
Continuous
 62
     1
100
AcDbLine
 10
696.55
 20
129.49
 30
0.0
 11
696.55
 21
142.99
 31
0.0
  0
LINE
  5
517
330
1F
100
AcDbEntity
  8
2
  6
Continuous
 62
     1
100
AcDbLine
 10
231.55
 20
124.49
 30
0.0
 11
231.55
 21
94.32
 31
0.0
  0
LINE
  5
518
330
1F
100
AcDbEntity
  8
2
  6
Continuous
 62
     1
100
AcDbLine
 10
231.55
 20
104.32
 30
0.0
 11
241.209258263
 21
101.731809549
 31
0.0
  0
LINE
  5
519
330
1F
100
AcDbEntity
  8
2
  6
Continuous
 62
     1
100
AcDbLine
 10
231.55
 20
104.32
 30
0.0
 11
241.209258263
 21
106.908190451
 31
0.0
  0
LWPOLYLINE
  5
51B
330
1F
100
AcDbEntity
  8
2
  6
Continuous
 62
     1
100
AcDbPolyline
 90
     3
 70
   128
 43
0.0
 10
231.55
 20
104.32
 10
696.55
 20
104.32
 10
686.890741737
 20
106.908190451
  0
LINE
  5
51C
330
1F
100
AcDbEntity
  8
2
  6
Continuous
 62
     1
100
AcDbLine
 10
696.55
 20
104.32
 30
0.0
 11
686.890741737
 21
101.731809549
 31
0.0
  0
LINE
  5
51D
330
1F
100
AcDbEntity
  8
2
  6
Continuous
 62
     1
100
AcDbLine
 10
696.55
 20
124.49
 30
0.0
 11
696.55
 21
94.32
 31
0.0
  0
TEXT
  5
51E
330
1F
100
AcDbEntity
  8
2
  6
Continuous
 62
     1
100
AcDbText
 10
441.1
 20
109.32
 30
0.0
 40
10.0
  1
４６５
 41
0.85
  7
KANJI0
100
AcDbText
  0
TEXT
  5
51F
330
1F
100
AcDbEntity
  8
2
  6
Continuous
 62
     1
100
AcDbText
 10
466.6
 20
115.32
 30
0.0
 40
6.0
  1
±３．０
 41
0.85
  7
KANJI1
100
AcDbText
  0
LINE
  5
520
330
1F
100
AcDbEntity
  8
2
  6
Continuous
 62
     1
100
AcDbLine
 10
223.05
 20
128.24
 30
0.0
 11
223.05
 21
64.09
 31
0.0
  0
LINE
  5
521
330
1F
100
AcDbEntity
  8
2
  6
Continuous
 62
     1
100
AcDbLine
 10
223.05
 20
74.09
 30
0.0
 11
232.709258263
 21
71.501809549
 31
0.0
  0
LINE
  5
522
330
1F
100
AcDbEntity
  8
2
  6
Continuous
 62
     1
100
AcDbLine
 10
223.05
 20
74.09
 30
0.0
 11
232.709258263
 21
76.678190451
 31
0.0
  0
LWPOLYLINE
  5
524
330
1F
100
AcDbEntity
  8
2
  6
Continuous
 62
     1
100
AcDbPolyline
 90
     3
 70
   128
 43
0.0
 10
223.05
 20
74.09
 10
705.05
 20
74.09
 10
695.390741737
 20
76.678190451
  0
LINE
  5
525
330
1F
100
AcDbEntity
  8
2
  6
Continuous
 62
     1
100
AcDbLine
 10
705.05
 20
74.09
 30
0.0
 11
695.390741737
 21
71.501809549
 31
0.0
  0
LINE
  5
526
330
1F
100
AcDbEntity
  8
2
  6
Continuous
 62
     1
100
AcDbLine
 10
705.05
 20
128.24
 30
0.0
 11
705.05
 21
64.09
 31
0.0
  0
TEXT
  5
527
330
1F
100
AcDbEntity
  8
2
  6
Continuous
 62
     1
100
AcDbText
 10
441.1
 20
79.09
 30
0.0
 40
10.0
  1
４８０
 41
0.85
  7
KANJI0
100
AcDbText
  0
TEXT
  5
528
330
1F
100
AcDbEntity
  8
2
  6
Continuous
 62
     1
100
AcDbText
 10
466.6
 20
85.09
 30
0.0
 40
6.0
  1
±３．０
 41
0.85
  7
KANJI1
100
AcDbText
  0
LINE
  5
529
330
1F
100
AcDbEntity
  8
2
  6
Continuous
 62
     1
100
AcDbLine
 10
220.05
 20
167.94
 30
0.0
 11
178.39
 21
167.94
 31
0.0
  0
LINE
  5
52A
330
1F
100
AcDbEntity
  8
2
  6
Continuous
 62
     1
100
AcDbLine
 10
188.39
 20
167.94
 30
0.0
 11
185.801809549
 21
158.280741737
 31
0.0
  0
LINE
  5
52B
330
1F
100
AcDbEntity
  8
2
  6
Continuous
 62
     1
100
AcDbLine
 10
188.39
 20
167.94
 30
0.0
 11
190.978190451
 21
158.280741737
 31
0.0
  0
LWPOLYLINE
  5
52D
330
1F
100
AcDbEntity
  8
2
  6
Continuous
 62
     1
100
AcDbPolyline
 90
     3
 70
   128
 43
0.0
 10
188.39
 20
167.94
 10
188.39
 20
136.24
 10
190.978190451
 20
145.899258263
  0
LINE
  5
52E
330
1F
100
AcDbEntity
  8
2
  6
Continuous
 62
     1
100
AcDbLine
 10
188.39
 20
136.24
 30
0.0
 11
185.801809549
 21
145.899258263
 31
0.0
  0
LINE
  5
52F
330
1F
100
AcDbEntity
  8
2
  6
Continuous
 62
     1
100
AcDbLine
 10
220.05
 20
136.24
 30
0.0
 11
178.39
 21
136.24
 31
0.0
  0
TEXT
  5
530
330
1F
100
AcDbEntity
  8
2
  6
Continuous
 62
     1
100
AcDbText
 10
183.39
 20
135.09
 30
0.0
 40
10.0
  1
３１．８
 50
90.0
 41
0.85
  7
KANJI0
100
AcDbText
  0
LINE
  5
531
330
1F
100
AcDbEntity
  8
2
  6
Continuous
 62
     1
100
AcDbLine
 10
221.05
 20
173.94
 30
0.0
 11
148.48
 21
173.94
 31
0.0
  0
LINE
  5
532
330
1F
100
AcDbEntity
  8
2
  6
Continuous
 62
     1
100
AcDbLine
 10
158.48
 20
173.94
 30
0.0
 11
155.891809549
 21
164.280741737
 31
0.0
  0
LINE
  5
533
330
1F
100
AcDbEntity
  8
2
  6
Continuous
 62
     1
100
AcDbLine
 10
158.48
 20
173.94
 30
0.0
 11
161.068190451
 21
164.280741737
 31
0.0
  0
LWPOLYLINE
  5
535
330
1F
100
AcDbEntity
  8
2
  6
Continuous
 62
     1
100
AcDbPolyline
 90
     3
 70
   128
 43
0.0
 10
158.48
 20
173.94
 10
158.48
 20
130.24
 10
161.068190451
 20
139.899258263
  0
LINE
  5
536
330
1F
100
AcDbEntity
  8
2
  6
Continuous
 62
     1
100
AcDbLine
 10
158.48
 20
130.24
 30
0.0
 11
155.891809549
 21
139.899258263
 31
0.0
  0
LINE
  5
537
330
1F
100
AcDbEntity
  8
2
  6
Continuous
 62
     1
100
AcDbLine
 10
221.05
 20
130.24
 30
0.0
 11
148.48
 21
130.24
 31
0.0
  0
TEXT
  5
538
330
1F
100
AcDbEntity
  8
2
  6
Continuous
 62
     1
100
AcDbText
 10
153.48
 20
143.59
 30
0.0
 40
10.0
  1
４４
 50
90.0
 41
0.85
  7
KANJI0
100
AcDbText
  0
LINE
  5
539
330
1F
100
AcDbEntity
  8
2
  6
Continuous
 62
     1
100
AcDbLine
 10
691.55
 20
172.94
 30
0.0
 11
691.55
 21
201.59
 31
0.0
  0
LINE
  5
53A
330
1F
100
AcDbEntity
  8
2
  6
Continuous
 62
     1
100
AcDbLine
 10
691.55
 20
191.59
 30
0.0
 11
681.890741737
 21
194.178190451
 31
0.0
  0
LINE
  5
53B
330
1F
100
AcDbEntity
  8
2
  6
Continuous
 62
     1
100
AcDbLine
 10
691.55
 20
191.59
 30
0.0
 11
681.890741737
 21
189.001809549
 31
0.0
  0
LWPOLYLINE
  5
53D
330
1F
100
AcDbEntity
  8
2
  6
Continuous
 62
     1
100
AcDbPolyline
 90
     4
 70
   128
 43
0.0
 10
659.55
 20
191.59
 10
691.55
 20
191.59
 10
701.55
 20
191.59
 10
716.55
 20
191.59
  0
LINE
  5
53E
330
1F
100
AcDbEntity
  8
2
  6
Continuous
 62
     1
100
AcDbLine
 10
701.55
 20
191.59
 30
0.0
 11
711.209258263
 21
189.001809549
 31
0.0
  0
LINE
  5
53F
330
1F
100
AcDbEntity
  8
2
  6
Continuous
 62
     1
100
AcDbLine
 10
701.55
 20
191.59
 30
0.0
 11
711.209258263
 21
194.178190451
 31
0.0
  0
LINE
  5
540
330
1F
100
AcDbEntity
  8
2
  6
Continuous
 62
     1
100
AcDbLine
 10
701.55
 20
172.94
 30
0.0
 11
701.55
 21
201.59
 31
0.0
  0
TEXT
  5
541
330
1F
100
AcDbEntity
  8
2
  6
Continuous
 62
     1
100
AcDbText
 10
659.55
 20
196.59
 30
0.0
 40
10.0
  1
１０
 41
0.85
  7
KANJI0
100
AcDbText
  0
LINE
  5
542
330
1F
100
AcDbEntity
  8
2
  6
Continuous
 62
     1
100
AcDbLine
 10
701.55
 20
171.44
 30
0.0
 11
743.59
 21
171.44
 31
0.0
  0
LINE
  5
543
330
1F
100
AcDbEntity
  8
2
  6
Continuous
 62
     1
100
AcDbLine
 10
733.59
 20
171.44
 30
0.0
 11
736.178190451
 21
181.099258263
 31
0.0
  0
LINE
  5
544
330
1F
100
AcDbEntity
  8
2
  6
Continuous
 62
     1
100
AcDbLine
 10
733.59
 20
171.44
 30
0.0
 11
731.001809549
 21
181.099258263
 31
0.0
  0
LWPOLYLINE
  5
546
330
1F
100
AcDbEntity
  8
2
  6
Continuous
 62
     1
100
AcDbPolyline
 90
     4
 70
   128
 43
0.0
 10
733.59
 20
186.44
 10
733.59
 20
171.44
 10
733.59
 20
164.44
 10
733.59
 20
140.94
  0
LINE
  5
547
330
1F
100
AcDbEntity
  8
2
  6
Continuous
 62
     1
100
AcDbLine
 10
733.59
 20
164.44
 30
0.0
 11
731.001809549
 21
154.780741737
 31
0.0
  0
LINE
  5
548
330
1F
100
AcDbEntity
  8
2
  6
Continuous
 62
     1
100
AcDbLine
 10
733.59
 20
164.44
 30
0.0
 11
736.178190451
 21
154.780741737
 31
0.0
  0
LINE
  5
549
330
1F
100
AcDbEntity
  8
2
  6
Continuous
 62
     1
100
AcDbLine
 10
701.55
 20
164.44
 30
0.0
 11
743.59
 21
164.44
 31
0.0
  0
TEXT
  5
54A
330
1F
100
AcDbEntity
  8
2
  6
Continuous
 62
     1
100
AcDbText
 10
728.59
 20
140.94
 30
0.0
 40
10.0
  1
７
 50
90.0
 41
0.85
  7
KANJI0
100
AcDbText
  0
CIRCLE
  5
54B
330
1F
100
AcDbEntity
  8
2
  6
Continuous
 62
     1
100
AcDbCircle
 10
340.05
 20
162.94
 30
0.0
 40
2.5
  0
CIRCLE
  5
54C
330
1F
100
AcDbEntity
  8
2
  6
Continuous
 62
     1
100
AcDbCircle
 10
340.05
 20
155.94
 30
0.0
 40
2.5
  0
CIRCLE
  5
54D
330
1F
100
AcDbEntity
  8
2
  6
Continuous
 62
     1
100
AcDbCircle
 10
340.05
 20
148.94
 30
0.0
 40
2.5
  0
CIRCLE
  5
54E
330
1F
100
AcDbEntity
  8
2
  6
Continuous
 62
     1
100
AcDbCircle
 10
526.55
 20
139.94
 30
0.0
 40
2.5
  0
CIRCLE
  5
54F
330
1F
100
AcDbEntity
  8
2
  6
Continuous
 62
     1
100
AcDbCircle
 10
533.55
 20
139.94
 30
0.0
 40
2.5
  0
CIRCLE
  5
550
330
1F
100
AcDbEntity
  8
2
  6
Continuous
 62
     1
100
AcDbCircle
 10
540.55
 20
139.94
 30
0.0
 40
2.5
  0
CIRCLE
  5
551
330
1F
100
AcDbEntity
  8
2
  6
Continuous
 62
     1
100
AcDbCircle
 10
547.55
 20
139.94
 30
0.0
 40
2.5
  0
CIRCLE
  5
552
330
1F
100
AcDbEntity
  8
2
  6
Continuous
 62
     1
100
AcDbCircle
 10
554.55
 20
139.94
 30
0.0
 40
2.5
  0
CIRCLE
  5
553
330
1F
100
AcDbEntity
  8
2
  6
Continuous
 62
     1
100
AcDbCircle
 10
561.55
 20
139.94
 30
0.0
 40
2.5
  0
CIRCLE
  5
554
330
1F
100
AcDbEntity
  8
2
  6
Continuous
 62
     1
100
AcDbCircle
 10
568.55
 20
139.94
 30
0.0
 40
2.5
  0
CIRCLE
  5
555
330
1F
100
AcDbEntity
  8
2
  6
Continuous
 62
     1
100
AcDbCircle
 10
575.55
 20
139.94
 30
0.0
 40
2.5
  0
CIRCLE
  5
556
330
1F
100
AcDbEntity
  8
2
  6
Continuous
 62
     1
100
AcDbCircle
 10
582.55
 20
139.94
 30
0.0
 40
2.5
  0
CIRCLE
  5
557
330
1F
100
AcDbEntity
  8
2
  6
Continuous
 62
     1
100
AcDbCircle
 10
589.55
 20
139.94
 30
0.0
 40
2.5
  0
CIRCLE
  5
558
330
1F
100
AcDbEntity
  8
2
  6
Continuous
 62
     1
100
AcDbCircle
 10
530.05
 20
144.94
 30
0.0
 40
2.5
  0
CIRCLE
  5
559
330
1F
100
AcDbEntity
  8
2
  6
Continuous
 62
     1
100
AcDbCircle
 10
537.05
 20
144.94
 30
0.0
 40
2.5
  0
CIRCLE
  5
55A
330
1F
100
AcDbEntity
  8
2
  6
Continuous
 62
     1
100
AcDbCircle
 10
544.05
 20
144.94
 30
0.0
 40
2.5
  0
CIRCLE
  5
55B
330
1F
100
AcDbEntity
  8
2
  6
Continuous
 62
     1
100
AcDbCircle
 10
551.05
 20
144.94
 30
0.0
 40
2.5
  0
CIRCLE
  5
55C
330
1F
100
AcDbEntity
  8
2
  6
Continuous
 62
     1
100
AcDbCircle
 10
558.05
 20
144.94
 30
0.0
 40
2.5
  0
CIRCLE
  5
55D
330
1F
100
AcDbEntity
  8
2
  6
Continuous
 62
     1
100
AcDbCircle
 10
565.05
 20
144.94
 30
0.0
 40
2.5
  0
CIRCLE
  5
55E
330
1F
100
AcDbEntity
  8
2
  6
Continuous
 62
     1
100
AcDbCircle
 10
572.05
 20
144.94
 30
0.0
 40
2.5
  0
CIRCLE
  5
55F
330
1F
100
AcDbEntity
  8
2
  6
Continuous
 62
     1
100
AcDbCircle
 10
579.05
 20
144.94
 30
0.0
 40
2.5
  0
CIRCLE
  5
560
330
1F
100
AcDbEntity
  8
2
  6
Continuous
 62
     1
100
AcDbCircle
 10
586.05
 20
144.94
 30
0.0
 40
2.5
  0
CIRCLE
  5
561
330
1F
100
AcDbEntity
  8
2
  6
Continuous
 62
     1
100
AcDbCircle
 10
526.55
 20
149.94
 30
0.0
 40
2.5
  0
CIRCLE
  5
562
330
1F
100
AcDbEntity
  8
2
  6
Continuous
 62
     1
100
AcDbCircle
 10
533.55
 20
149.94
 30
0.0
 40
2.5
  0
CIRCLE
  5
563
330
1F
100
AcDbEntity
  8
2
  6
Continuous
 62
     1
100
AcDbCircle
 10
540.55
 20
149.94
 30
0.0
 40
2.5
  0
CIRCLE
  5
564
330
1F
100
AcDbEntity
  8
2
  6
Continuous
 62
     1
100
AcDbCircle
 10
547.55
 20
149.94
 30
0.0
 40
2.5
  0
CIRCLE
  5
565
330
1F
100
AcDbEntity
  8
2
  6
Continuous
 62
     1
100
AcDbCircle
 10
554.55
 20
149.94
 30
0.0
 40
2.5
  0
CIRCLE
  5
566
330
1F
100
AcDbEntity
  8
2
  6
Continuous
 62
     1
100
AcDbCircle
 10
561.55
 20
149.94
 30
0.0
 40
2.5
  0
CIRCLE
  5
567
330
1F
100
AcDbEntity
  8
2
  6
Continuous
 62
     1
100
AcDbCircle
 10
568.55
 20
149.94
 30
0.0
 40
2.5
  0
CIRCLE
  5
568
330
1F
100
AcDbEntity
  8
2
  6
Continuous
 62
     1
100
AcDbCircle
 10
575.55
 20
149.94
 30
0.0
 40
2.5
  0
CIRCLE
  5
569
330
1F
100
AcDbEntity
  8
2
  6
Continuous
 62
     1
100
AcDbCircle
 10
582.55
 20
149.94
 30
0.0
 40
2.5
  0
CIRCLE
  5
56A
330
1F
100
AcDbEntity
  8
2
  6
Continuous
 62
     1
100
AcDbCircle
 10
589.55
 20
149.94
 30
0.0
 40
2.5
  0
CIRCLE
  5
56B
330
1F
100
AcDbEntity
  8
2
  6
Continuous
 62
     1
100
AcDbCircle
 10
530.05
 20
154.94
 30
0.0
 40
2.5
  0
CIRCLE
  5
56C
330
1F
100
AcDbEntity
  8
2
  6
Continuous
 62
     1
100
AcDbCircle
 10
537.05
 20
154.94
 30
0.0
 40
2.5
  0
CIRCLE
  5
56D
330
1F
100
AcDbEntity
  8
2
  6
Continuous
 62
     1
100
AcDbCircle
 10
544.05
 20
154.94
 30
0.0
 40
2.5
  0
CIRCLE
  5
56E
330
1F
100
AcDbEntity
  8
2
  6
Continuous
 62
     1
100
AcDbCircle
 10
551.05
 20
154.94
 30
0.0
 40
2.5
  0
CIRCLE
  5
56F
330
1F
100
AcDbEntity
  8
2
  6
Continuous
 62
     1
100
AcDbCircle
 10
558.05
 20
154.94
 30
0.0
 40
2.5
  0
CIRCLE
  5
570
330
1F
100
AcDbEntity
  8
2
  6
Continuous
 62
     1
100
AcDbCircle
 10
565.05
 20
154.94
 30
0.0
 40
2.5
  0
CIRCLE
  5
571
330
1F
100
AcDbEntity
  8
2
  6
Continuous
 62
     1
100
AcDbCircle
 10
572.05
 20
154.94
 30
0.0
 40
2.5
  0
CIRCLE
  5
572
330
1F
100
AcDbEntity
  8
2
  6
Continuous
 62
     1
100
AcDbCircle
 10
579.05
 20
154.94
 30
0.0
 40
2.5
  0
CIRCLE
  5
573
330
1F
100
AcDbEntity
  8
2
  6
Continuous
 62
     1
100
AcDbCircle
 10
586.05
 20
154.94
 30
0.0
 40
2.5
  0
CIRCLE
  5
574
330
1F
100
AcDbEntity
  8
2
  6
Continuous
 62
     1
100
AcDbCircle
 10
593.05
 20
154.94
 30
0.0
 40
2.5
  0
CIRCLE
  5
575
330
1F
100
AcDbEntity
  8
2
  6
Continuous
 62
     1
100
AcDbCircle
 10
600.05
 20
154.94
 30
0.0
 40
2.5
  0
CIRCLE
  5
576
330
1F
100
AcDbEntity
  8
2
  6
Continuous
 62
     1
100
AcDbCircle
 10
526.55
 20
159.94
 30
0.0
 40
2.5
  0
CIRCLE
  5
577
330
1F
100
AcDbEntity
  8
2
  6
Continuous
 62
     1
100
AcDbCircle
 10
533.55
 20
159.94
 30
0.0
 40
2.5
  0
CIRCLE
  5
578
330
1F
100
AcDbEntity
  8
2
  6
Continuous
 62
     1
100
AcDbCircle
 10
540.55
 20
159.94
 30
0.0
 40
2.5
  0
CIRCLE
  5
579
330
1F
100
AcDbEntity
  8
2
  6
Continuous
 62
     1
100
AcDbCircle
 10
547.55
 20
159.94
 30
0.0
 40
2.5
  0
CIRCLE
  5
57A
330
1F
100
AcDbEntity
  8
2
  6
Continuous
 62
     1
100
AcDbCircle
 10
554.55
 20
159.94
 30
0.0
 40
2.5
  0
CIRCLE
  5
57B
330
1F
100
AcDbEntity
  8
2
  6
Continuous
 62
     1
100
AcDbCircle
 10
561.55
 20
159.94
 30
0.0
 40
2.5
  0
CIRCLE
  5
57C
330
1F
100
AcDbEntity
  8
2
  6
Continuous
 62
     1
100
AcDbCircle
 10
568.55
 20
159.94
 30
0.0
 40
2.5
  0
CIRCLE
  5
57D
330
1F
100
AcDbEntity
  8
2
  6
Continuous
 62
     1
100
AcDbCircle
 10
575.55
 20
159.94
 30
0.0
 40
2.5
  0
CIRCLE
  5
57E
330
1F
100
AcDbEntity
  8
2
  6
Continuous
 62
     1
100
AcDbCircle
 10
582.55
 20
159.94
 30
0.0
 40
2.5
  0
CIRCLE
  5
57F
330
1F
100
AcDbEntity
  8
2
  6
Continuous
 62
     1
100
AcDbCircle
 10
589.55
 20
159.94
 30
0.0
 40
2.5
  0
CIRCLE
  5
580
330
1F
100
AcDbEntity
  8
2
  6
Continuous
 62
     1
100
AcDbCircle
 10
596.55
 20
159.94
 30
0.0
 40
2.5
  0
CIRCLE
  5
581
330
1F
100
AcDbEntity
  8
2
  6
Continuous
 62
     1
100
AcDbCircle
 10
530.05
 20
164.94
 30
0.0
 40
2.5
  0
CIRCLE
  5
582
330
1F
100
AcDbEntity
  8
2
  6
Continuous
 62
     1
100
AcDbCircle
 10
537.05
 20
164.94
 30
0.0
 40
2.5
  0
CIRCLE
  5
583
330
1F
100
AcDbEntity
  8
2
  6
Continuous
 62
     1
100
AcDbCircle
 10
544.05
 20
164.94
 30
0.0
 40
2.5
  0
CIRCLE
  5
584
330
1F
100
AcDbEntity
  8
2
  6
Continuous
 62
     1
100
AcDbCircle
 10
551.05
 20
164.94
 30
0.0
 40
2.5
  0
CIRCLE
  5
585
330
1F
100
AcDbEntity
  8
2
  6
Continuous
 62
     1
100
AcDbCircle
 10
558.05
 20
164.94
 30
0.0
 40
2.5
  0
CIRCLE
  5
586
330
1F
100
AcDbEntity
  8
2
  6
Continuous
 62
     1
100
AcDbCircle
 10
565.05
 20
164.94
 30
0.0
 40
2.5
  0
CIRCLE
  5
587
330
1F
100
AcDbEntity
  8
2
  6
Continuous
 62
     1
100
AcDbCircle
 10
572.05
 20
164.94
 30
0.0
 40
2.5
  0
CIRCLE
  5
588
330
1F
100
AcDbEntity
  8
2
  6
Continuous
 62
     1
100
AcDbCircle
 10
579.05
 20
164.94
 30
0.0
 40
2.5
  0
CIRCLE
  5
589
330
1F
100
AcDbEntity
  8
2
  6
Continuous
 62
     1
100
AcDbCircle
 10
586.05
 20
164.94
 30
0.0
 40
2.5
  0
CIRCLE
  5
58A
330
1F
100
AcDbEntity
  8
2
  6
Continuous
 62
     1
100
AcDbCircle
 10
593.05
 20
164.94
 30
0.0
 40
2.5
  0
CIRCLE
  5
58B
330
1F
100
AcDbEntity
  8
2
  6
Continuous
 62
     1
100
AcDbCircle
 10
600.05
 20
164.94
 30
0.0
 40
2.5
  0
CIRCLE
  5
58C
330
1F
100
AcDbEntity
  8
2
  6
Continuous
 62
     1
100
AcDbCircle
 10
484.55
 20
139.94
 30
0.0
 40
2.5
  0
CIRCLE
  5
58D
330
1F
100
AcDbEntity
  8
2
  6
Continuous
 62
     1
100
AcDbCircle
 10
491.55
 20
139.94
 30
0.0
 40
2.5
  0
CIRCLE
  5
58E
330
1F
100
AcDbEntity
  8
2
  6
Continuous
 62
     1
100
AcDbCircle
 10
498.55
 20
139.94
 30
0.0
 40
2.5
  0
CIRCLE
  5
58F
330
1F
100
AcDbEntity
  8
2
  6
Continuous
 62
     1
100
AcDbCircle
 10
477.55
 20
139.94
 30
0.0
 40
2.5
  0
CIRCLE
  5
590
330
1F
100
AcDbEntity
  8
2
  6
Continuous
 62
     1
100
AcDbCircle
 10
502.05
 20
154.94
 30
0.0
 40
2.5
  0
CIRCLE
  5
591
330
1F
100
AcDbEntity
  8
2
  6
Continuous
 62
     1
100
AcDbCircle
 10
495.05
 20
154.94
 30
0.0
 40
2.5
  0
CIRCLE
  5
592
330
1F
100
AcDbEntity
  8
2
  6
Continuous
 62
     1
100
AcDbCircle
 10
488.05
 20
154.94
 30
0.0
 40
2.5
  0
CIRCLE
  5
593
330
1F
100
AcDbEntity
  8
2
  6
Continuous
 62
     1
100
AcDbCircle
 10
481.05
 20
154.94
 30
0.0
 40
2.5
  0
CIRCLE
  5
594
330
1F
100
AcDbEntity
  8
2
  6
Continuous
 62
     1
100
AcDbCircle
 10
474.05
 20
154.94
 30
0.0
 40
2.5
  0
CIRCLE
  5
595
330
1F
100
AcDbEntity
  8
2
  6
Continuous
 62
     1
100
AcDbCircle
 10
432.55
 20
139.94
 30
0.0
 40
2.5
  0
CIRCLE
  5
596
330
1F
100
AcDbEntity
  8
2
  6
Continuous
 62
     1
100
AcDbCircle
 10
439.55
 20
139.94
 30
0.0
 40
2.5
  0
CIRCLE
  5
597
330
1F
100
AcDbEntity
  8
2
  6
Continuous
 62
     1
100
AcDbCircle
 10
446.55
 20
139.94
 30
0.0
 40
2.5
  0
CIRCLE
  5
598
330
1F
100
AcDbEntity
  8
2
  6
Continuous
 62
     1
100
AcDbCircle
 10
450.05
 20
154.94
 30
0.0
 40
2.5
  0
CIRCLE
  5
599
330
1F
100
AcDbEntity
  8
2
  6
Continuous
 62
     1
100
AcDbCircle
 10
443.05
 20
154.94
 30
0.0
 40
2.5
  0
CIRCLE
  5
59A
330
1F
100
AcDbEntity
  8
2
  6
Continuous
 62
     1
100
AcDbCircle
 10
436.05
 20
154.94
 30
0.0
 40
2.5
  0
CIRCLE
  5
59B
330
1F
100
AcDbEntity
  8
2
  6
Continuous
 62
     1
100
AcDbCircle
 10
429.05
 20
154.94
 30
0.0
 40
2.5
  0
CIRCLE
  5
59C
330
1F
100
AcDbEntity
  8
2
  6
Continuous
 62
     1
100
AcDbCircle
 10
375.05
 20
139.94
 30
0.0
 40
2.5
  0
CIRCLE
  5
59D
330
1F
100
AcDbEntity
  8
2
  6
Continuous
 62
     1
100
AcDbCircle
 10
382.05
 20
139.94
 30
0.0
 40
2.5
  0
CIRCLE
  5
59E
330
1F
100
AcDbEntity
  8
2
  6
Continuous
 62
     1
100
AcDbCircle
 10
389.05
 20
139.94
 30
0.0
 40
2.5
  0
CIRCLE
  5
59F
330
1F
100
AcDbEntity
  8
2
  6
Continuous
 62
     1
100
AcDbCircle
 10
396.05
 20
139.94
 30
0.0
 40
2.5
  0
CIRCLE
  5
5A0
330
1F
100
AcDbEntity
  8
2
  6
Continuous
 62
     1
100
AcDbCircle
 10
371.55
 20
144.94
 30
0.0
 40
2.5
  0
CIRCLE
  5
5A1
330
1F
100
AcDbEntity
  8
2
  6
Continuous
 62
     1
100
AcDbCircle
 10
378.55
 20
144.94
 30
0.0
 40
2.5
  0
CIRCLE
  5
5A2
330
1F
100
AcDbEntity
  8
2
  6
Continuous
 62
     1
100
AcDbCircle
 10
385.55
 20
144.94
 30
0.0
 40
2.5
  0
CIRCLE
  5
5A3
330
1F
100
AcDbEntity
  8
2
  6
Continuous
 62
     1
100
AcDbCircle
 10
392.55
 20
144.94
 30
0.0
 40
2.5
  0
CIRCLE
  5
5A4
330
1F
100
AcDbEntity
  8
2
  6
Continuous
 62
     1
100
AcDbCircle
 10
375.05
 20
149.94
 30
0.0
 40
2.5
  0
CIRCLE
  5
5A5
330
1F
100
AcDbEntity
  8
2
  6
Continuous
 62
     1
100
AcDbCircle
 10
382.05
 20
149.94
 30
0.0
 40
2.5
  0
CIRCLE
  5
5A6
330
1F
100
AcDbEntity
  8
2
  6
Continuous
 62
     1
100
AcDbCircle
 10
389.05
 20
149.94
 30
0.0
 40
2.5
  0
CIRCLE
  5
5A7
330
1F
100
AcDbEntity
  8
2
  6
Continuous
 62
     1
100
AcDbCircle
 10
396.05
 20
149.94
 30
0.0
 40
2.5
  0
CIRCLE
  5
5A8
330
1F
100
AcDbEntity
  8
2
  6
Continuous
 62
     1
100
AcDbCircle
 10
371.55
 20
154.94
 30
0.0
 40
2.5
  0
CIRCLE
  5
5A9
330
1F
100
AcDbEntity
  8
2
  6
Continuous
 62
     1
100
AcDbCircle
 10
378.55
 20
154.94
 30
0.0
 40
2.5
  0
CIRCLE
  5
5AA
330
1F
100
AcDbEntity
  8
2
  6
Continuous
 62
     1
100
AcDbCircle
 10
385.55
 20
154.94
 30
0.0
 40
2.5
  0
CIRCLE
  5
5AB
330
1F
100
AcDbEntity
  8
2
  6
Continuous
 62
     1
100
AcDbCircle
 10
392.55
 20
154.94
 30
0.0
 40
2.5
  0
CIRCLE
  5
5AC
330
1F
100
AcDbEntity
  8
2
  6
Continuous
 62
     1
100
AcDbCircle
 10
375.05
 20
159.94
 30
0.0
 40
2.5
  0
CIRCLE
  5
5AD
330
1F
100
AcDbEntity
  8
2
  6
Continuous
 62
     1
100
AcDbCircle
 10
382.05
 20
159.94
 30
0.0
 40
2.5
  0
CIRCLE
  5
5AE
330
1F
100
AcDbEntity
  8
2
  6
Continuous
 62
     1
100
AcDbCircle
 10
389.05
 20
159.94
 30
0.0
 40
2.5
  0
CIRCLE
  5
5AF
330
1F
100
AcDbEntity
  8
2
  6
Continuous
 62
     1
100
AcDbCircle
 10
396.05
 20
159.94
 30
0.0
 40
2.5
  0
CIRCLE
  5
5B0
330
1F
100
AcDbEntity
  8
2
  6
Continuous
 62
     1
100
AcDbCircle
 10
371.55
 20
164.94
 30
0.0
 40
2.5
  0
CIRCLE
  5
5B1
330
1F
100
AcDbEntity
  8
2
  6
Continuous
 62
     1
100
AcDbCircle
 10
378.55
 20
164.94
 30
0.0
 40
2.5
  0
CIRCLE
  5
5B2
330
1F
100
AcDbEntity
  8
2
  6
Continuous
 62
     1
100
AcDbCircle
 10
385.55
 20
164.94
 30
0.0
 40
2.5
  0
CIRCLE
  5
5B3
330
1F
100
AcDbEntity
  8
2
  6
Continuous
 62
     1
100
AcDbCircle
 10
392.55
 20
164.94
 30
0.0
 40
2.5
  0
CIRCLE
  5
5B4
330
1F
100
AcDbEntity
  8
2
  6
Continuous
 62
     1
100
AcDbCircle
 10
256.05
 20
139.94
 30
0.0
 40
2.5
  0
CIRCLE
  5
5B5
330
1F
100
AcDbEntity
  8
2
  6
Continuous
 62
     1
100
AcDbCircle
 10
263.05
 20
139.94
 30
0.0
 40
2.5
  0
CIRCLE
  5
5B6
330
1F
100
AcDbEntity
  8
2
  6
Continuous
 62
     1
100
AcDbCircle
 10
270.05
 20
139.94
 30
0.0
 40
2.5
  0
CIRCLE
  5
5B7
330
1F
100
AcDbEntity
  8
2
  6
Continuous
 62
     1
100
AcDbCircle
 10
277.05
 20
139.94
 30
0.0
 40
2.5
  0
CIRCLE
  5
5B8
330
1F
100
AcDbEntity
  8
2
  6
Continuous
 62
     1
100
AcDbCircle
 10
259.55
 20
144.94
 30
0.0
 40
2.5
  0
CIRCLE
  5
5B9
330
1F
100
AcDbEntity
  8
2
  6
Continuous
 62
     1
100
AcDbCircle
 10
266.55
 20
144.94
 30
0.0
 40
2.5
  0
CIRCLE
  5
5BA
330
1F
100
AcDbEntity
  8
2
  6
Continuous
 62
     1
100
AcDbCircle
 10
273.55
 20
144.94
 30
0.0
 40
2.5
  0
CIRCLE
  5
5BB
330
1F
100
AcDbEntity
  8
2
  6
Continuous
 62
     1
100
AcDbCircle
 10
256.05
 20
149.94
 30
0.0
 40
2.5
  0
CIRCLE
  5
5BC
330
1F
100
AcDbEntity
  8
2
  6
Continuous
 62
     1
100
AcDbCircle
 10
263.05
 20
149.94
 30
0.0
 40
2.5
  0
CIRCLE
  5
5BD
330
1F
100
AcDbEntity
  8
2
  6
Continuous
 62
     1
100
AcDbCircle
 10
270.05
 20
149.94
 30
0.0
 40
2.5
  0
CIRCLE
  5
5BE
330
1F
100
AcDbEntity
  8
2
  6
Continuous
 62
     1
100
AcDbCircle
 10
277.05
 20
149.94
 30
0.0
 40
2.5
  0
CIRCLE
  5
5BF
330
1F
100
AcDbEntity
  8
2
  6
Continuous
 62
     1
100
AcDbCircle
 10
259.55
 20
154.94
 30
0.0
 40
2.5
  0
CIRCLE
  5
5C0
330
1F
100
AcDbEntity
  8
2
  6
Continuous
 62
     1
100
AcDbCircle
 10
266.55
 20
154.94
 30
0.0
 40
2.5
  0
CIRCLE
  5
5C1
330
1F
100
AcDbEntity
  8
2
  6
Continuous
 62
     1
100
AcDbCircle
 10
273.55
 20
154.94
 30
0.0
 40
2.5
  0
ARC
  5
5C2
330
1F
100
AcDbEntity
  8
2
  6
Continuous
 62
     1
100
AcDbCircle
 10
414.05
 20
147.94
 30
0.0
 40
4.0
100
AcDbArc
 50
90.0
 51
270.0
  0
LINE
  5
5C3
330
1F
100
AcDbEntity
  8
2
  6
Continuous
 62
     1
100
AcDbLine
 10
414.05
 20
143.94
 30
0.0
 11
514.05
 21
143.94
 31
0.0
  0
LINE
  5
5C4
330
1F
100
AcDbEntity
  8
2
  6
Continuous
 62
     1
100
AcDbLine
 10
414.05
 20
151.94
 30
0.0
 11
514.05
 21
151.94
 31
0.0
  0
ARC
  5
5C5
330
1F
100
AcDbEntity
  8
2
  6
Continuous
 62
     1
100
AcDbCircle
 10
514.05
 20
147.94
 30
0.0
 40
4.0
100
AcDbArc
 50
270.0
 51
90.0
  0
ARC
  5
5C6
330
1F
100
AcDbEntity
  8
2
  6
Continuous
 62
     1
100
AcDbCircle
 10
432.55
 20
149.94
 30
0.0
 40
2.5
100
AcDbArc
 50
53.130102354
 51
126.869897646
  0
ARC
  5
5C7
330
1F
100
AcDbEntity
  8
2
  6
Continuous
 62
     1
100
AcDbCircle
 10
439.55
 20
149.94
 30
0.0
 40
2.5
100
AcDbArc
 50
53.130102354
 51
126.869897646
  0
ARC
  5
5C8
330
1F
100
AcDbEntity
  8
2
  6
Continuous
 62
     1
100
AcDbCircle
 10
446.55
 20
149.94
 30
0.0
 40
2.5
100
AcDbArc
 50
53.130102354
 51
126.869897646
  0
ARC
  5
5C9
330
1F
100
AcDbEntity
  8
2
  6
Continuous
 62
     1
100
AcDbCircle
 10
477.55
 20
149.94
 30
0.0
 40
2.5
100
AcDbArc
 50
53.130102354
 51
126.869897646
  0
ARC
  5
5CA
330
1F
100
AcDbEntity
  8
2
  6
Continuous
 62
     1
100
AcDbCircle
 10
484.55
 20
149.94
 30
0.0
 40
2.5
100
AcDbArc
 50
53.130102354
 51
126.869897646
  0
ARC
  5
5CB
330
1F
100
AcDbEntity
  8
2
  6
Continuous
 62
     1
100
AcDbCircle
 10
491.55
 20
149.94
 30
0.0
 40
2.5
100
AcDbArc
 50
53.130102354
 51
126.869897646
  0
ARC
  5
5CC
330
1F
100
AcDbEntity
  8
2
  6
Continuous
 62
     1
100
AcDbCircle
 10
498.55
 20
149.94
 30
0.0
 40
2.5
100
AcDbArc
 50
53.130102354
 51
126.869897646
  0
ARC
  5
5CD
330
1F
100
AcDbEntity
  8
2
  6
Continuous
 62
     1
100
AcDbCircle
 10
429.05
 20
144.94
 30
0.0
 40
2.5
100
AcDbArc
 50
203.578178478
 51
336.421821522
  0
ARC
  5
5CE
330
1F
100
AcDbEntity
  8
2
  6
Continuous
 62
     1
100
AcDbCircle
 10
436.05
 20
144.94
 30
0.0
 40
2.5
100
AcDbArc
 50
203.578178478
 51
336.421821522
  0
ARC
  5
5CF
330
1F
100
AcDbEntity
  8
2
  6
Continuous
 62
     1
100
AcDbCircle
 10
443.05
 20
144.94
 30
0.0
 40
2.5
100
AcDbArc
 50
203.578178478
 51
336.421821522
  0
ARC
  5
5D0
330
1F
100
AcDbEntity
  8
2
  6
Continuous
 62
     1
100
AcDbCircle
 10
450.05
 20
144.94
 30
0.0
 40
2.5
100
AcDbArc
 50
203.578178478
 51
336.421821522
  0
ARC
  5
5D1
330
1F
100
AcDbEntity
  8
2
  6
Continuous
 62
     1
100
AcDbCircle
 10
474.05
 20
144.94
 30
0.0
 40
2.5
100
AcDbArc
 50
203.578178478
 51
336.421821522
  0
ARC
  5
5D2
330
1F
100
AcDbEntity
  8
2
  6
Continuous
 62
     1
100
AcDbCircle
 10
481.05
 20
144.94
 30
0.0
 40
2.5
100
AcDbArc
 50
203.578178478
 51
336.421821522
  0
ARC
  5
5D3
330
1F
100
AcDbEntity
  8
2
  6
Continuous
 62
     1
100
AcDbCircle
 10
488.05
 20
144.94
 30
0.0
 40
2.5
100
AcDbArc
 50
203.578178478
 51
336.421821522
  0
ARC
  5
5D4
330
1F
100
AcDbEntity
  8
2
  6
Continuous
 62
     1
100
AcDbCircle
 10
495.05
 20
144.94
 30
0.0
 40
2.5
100
AcDbArc
 50
203.578178478
 51
336.421821522
  0
ARC
  5
5D5
330
1F
100
AcDbEntity
  8
2
  6
Continuous
 62
     1
100
AcDbCircle
 10
502.05
 20
144.94
 30
0.0
 40
2.5
100
AcDbArc
 50
203.578178478
 51
336.421821522
  0
LINE
  5
5D6
330
1F
100
AcDbEntity
  8
2
  6
Continuous
 62
     1
100
AcDbLine
 10
295.9
 20
159.94
 30
0.0
 11
305.9
 21
159.94
 31
0.0
  0
LINE
  5
5D7
330
1F
100
AcDbEntity
  8
2
  6
Continuous
 62
     1
100
AcDbLine
 10
305.9
 20
159.94
 30
0.0
 11
305.9
 21
142.94
 31
0.0
  0
LINE
  5
5D8
330
1F
100
AcDbEntity
  8
2
  6
Continuous
 62
     1
100
AcDbLine
 10
295.9
 20
142.94
 30
0.0
 11
305.9
 21
142.94
 31
0.0
  0
LINE
  5
5D9
330
1F
100
AcDbEntity
  8
2
  6
Continuous
 62
     1
100
AcDbLine
 10
295.9
 20
159.94
 30
0.0
 11
295.9
 21
142.94
 31
0.0
  0
LINE
  5
5DA
330
1F
100
AcDbEntity
  8
2
  6
Continuous
 62
     1
100
AcDbLine
 10
295.9
 20
151.44
 30
0.0
 11
305.9
 21
151.44
 31
0.0
  0
CIRCLE
  5
5DB
330
1F
100
AcDbEntity
  8
2
  6
Continuous
 62
     1
100
AcDbCircle
 10
300.9
 20
155.94
 30
0.0
 40
1.0
  0
TEXT
  5
5DC
330
1F
100
AcDbEntity
  8
2
  6
Continuous
 62
     1
100
AcDbText
 10
440.478712153
 20
162.36
 30
0.0
 40
6.0
  1
ＤＣ－ＡＣ　Ｉｎｖｅｒｔｅｒ
 41
0.833333333
  7
KANJI7
100
AcDbText
  0
TEXT
  5
5DE
330
1F
100
AcDbEntity
  8
2
  6
Continuous
 62
     1
100
AcDbText
 10
345.92
 20
160.12
 30
0.0
 40
5.0
  1
ＰＯＷＥＲ
 41
0.35
  7
KANJI8
100
AcDbText
  0
TEXT
  5
5E0
330
1F
100
AcDbEntity
  8
2
  6
Continuous
 62
     1
100
AcDbText
 10
345.92
 20
153.12
 30
0.0
 40
5.0
  1
ＯＶＥＲ　ＬＯＡＤ
 41
0.35
  7
KANJI8
100
AcDbText
  0
TEXT
  5
5E1
330
1F
100
AcDbEntity
  8
2
  6
Continuous
 62
     1
100
AcDbText
 10
345.92
 20
146.12
 30
0.0
 40
5.0
  1
ＡＬＡＲＭ
 41
0.35
  7
KANJI8
100
AcDbText
  0
CIRCLE
  5
5E2
330
1F
100
AcDbEntity
  8
2
  6
Continuous
 62
     1
100
AcDbCircle
 10
340.05
 20
162.94
 30
0.0
 40
1.75
  0
CIRCLE
  5
5E3
330
1F
100
AcDbEntity
  8
2
  6
Continuous
 62
     1
100
AcDbCircle
 10
340.05
 20
155.94
 30
0.0
 40
1.75
  0
CIRCLE
  5
5E4
330
1F
100
AcDbEntity
  8
2
  6
Continuous
 62
     1
100
AcDbCircle
 10
340.05
 20
148.94
 30
0.0
 40
1.75
  0
TEXT
  5
5E5
330
1F
100
AcDbEntity
  8
2
  6
Continuous
 62
     1
100
AcDbText
 10
295.49
 20
165.35
 30
0.0
 40
5.0
  1
ＰＯＷＥＲ
 41
0.35
  7
KANJI8
100
AcDbText
  0
CIRCLE
  5
5E6
330
1F
100
AcDbEntity
  8
2
  6
Continuous
 62
     1
100
AcDbCircle
 10
620.05
 20
162.94
 30
0.0
 40
2.5
  0
CIRCLE
  5
5E7
330
1F
100
AcDbEntity
  8
2
  6
Continuous
 62
     1
100
AcDbCircle
 10
620.05
 20
155.94
 30
0.0
 40
2.5
  0
LWPOLYLINE
  5
5E9
330
1F
100
AcDbEntity
  8
2
  6
Continuous
 62
     1
100
AcDbPolyline
 90
     4
 70
   129
 43
0.0
 10
650.515
 20
156.965
 10
650.515
 20
161.915
 10
643.585
 20
161.915
 10
643.585
 20
156.965
  0
LWPOLYLINE
  5
5EB
330
1F
100
AcDbEntity
  8
2
  6
Continuous
 62
     1
100
AcDbPolyline
 90
     4
 70
   129
 43
0.0
 10
648.535
 20
157.955
 10
648.535
 20
158.945
 10
645.565
 20
158.945
 10
645.565
 20
157.955
  0
LWPOLYLINE
  5
5ED
330
1F
100
AcDbEntity
  8
2
  6
Continuous
 62
     1
100
AcDbPolyline
 90
     4
 70
   129
 43
0.0
 10
648.535
 20
159.935
 10
648.535
 20
160.925
 10
645.565
 20
160.925
 10
645.565
 20
159.935
  0
LWPOLYLINE
  5
5EF
330
1F
100
AcDbEntity
  8
2
  6
Continuous
 62
     1
100
AcDbPolyline
 90
     4
 70
   129
 43
0.0
 10
646.555
 20
157.955
 10
646.555
 20
158.945
 10
645.565
 20
158.945
 10
645.565
 20
157.955
  0
LWPOLYLINE
  5
5F1
330
1F
100
AcDbEntity
  8
2
  6
Continuous
 62
     1
100
AcDbPolyline
 90
     4
 70
   129
 43
0.0
 10
646.555
 20
159.935
 10
646.555
 20
160.925
 10
645.565
 20
160.925
 10
645.565
 20
159.935
  0
LINE
  5
5F2
330
1F
100
AcDbEntity
  8
2
  6
Continuous
 62
     1
100
AcDbLine
 10
645.565
 20
160.642106781
 30
0.0
 11
645.847893219
 21
160.925
 31
0.0
  0
LINE
  5
5F3
330
1F
100
AcDbEntity
  8
2
  6
Continuous
 62
     1
100
AcDbLine
 10
646.555
 20
160.925
 30
0.0
 11
645.565
 21
159.935
 31
0.0
  0
LINE
  5
5F4
330
1F
100
AcDbEntity
  8
2
  6
Continuous
 62
     1
100
AcDbLine
 10
646.272106781
 20
159.935
 30
0.0
 11
646.555
 21
160.217893219
 31
0.0
  0
LINE
  5
5F5
330
1F
100
AcDbEntity
  8
2
  6
Continuous
 62
     1
100
AcDbLine
 10
645.847893219
 20
158.945
 30
0.0
 11
645.565
 21
158.662106781
 31
0.0
  0
LINE
  5
5F6
330
1F
100
AcDbEntity
  8
2
  6
Continuous
 62
     1
100
AcDbLine
 10
645.565
 20
157.955
 30
0.0
 11
646.555
 21
158.945
 31
0.0
  0
LINE
  5
5F7
330
1F
100
AcDbEntity
  8
2
  6
Continuous
 62
     1
100
AcDbLine
 10
646.555
 20
158.237893219
 30
0.0
 11
646.272106781
 21
157.955
 31
0.0
  0
CIRCLE
  5
5F8
330
1F
100
AcDbEntity
  8
2
  6
Continuous
 62
     1
100
AcDbCircle
 10
620.05
 20
162.94
 30
0.0
 40
1.75
  0
CIRCLE
  5
5F9
330
1F
100
AcDbEntity
  8
2
  6
Continuous
 62
     1
100
AcDbCircle
 10
620.05
 20
155.94
 30
0.0
 40
1.75
  0
TEXT
  5
5FA
330
1F
100
AcDbEntity
  8
2
  6
Continuous
 62
     1
100
AcDbText
 10
637.14
 20
159.69
 30
0.0
 40
3.5
  1
５０Ｈｚ
 41
0.357142857
  7
KANJI9
100
AcDbText
  0
TEXT
  5
5FC
330
1F
100
AcDbEntity
  8
2
  6
Continuous
 62
     1
100
AcDbText
 10
637.15
 20
155.7
 30
0.0
 40
3.5
  1
ＩＮＶ
 41
0.357142857
  7
KANJI9
100
AcDbText
  0
TEXT
  5
5FD
330
1F
100
AcDbEntity
  8
2
  6
Continuous
 62
     1
100
AcDbText
 10
624.02
 20
160.45
 30
0.0
 40
5.0
  1
ＡＣＩＮ
 41
0.35
  7
KANJI8
100
AcDbText
  0
TEXT
  5
5FE
330
1F
100
AcDbEntity
  8
2
  6
Continuous
 62
     1
100
AcDbText
 10
624.02
 20
153.4
 30
0.0
 40
5.0
  1
ＩＮＶ
 41
0.35
  7
KANJI8
100
AcDbText
  0
TEXT
  5
5FF
330
1F
100
AcDbEntity
  8
2
  6
Continuous
 62
     1
100
AcDbText
 10
652.64
 20
159.67
 30
0.0
 40
3.5
  1
６０Ｈｚ
 41
0.357142857
  7
KANJI9
100
AcDbText
  0
TEXT
  5
600
330
1F
100
AcDbEntity
  8
2
  6
Continuous
 62
     1
100
AcDbText
 10
652.65
 20
155.68
 30
0.0
 40
3.5
  1
ＢＹＰＡＳＳ
 41
0.357142857
  7
KANJI9
100
AcDbText
  0
TEXT
  5
601
330
1F
100
AcDbEntity
  8
2
  6
Continuous
 62
     1
100
AcDbText
 10
645.21
 20
163.47
 30
0.0
 40
3.5
  1
ＦＲＱ
 41
0.357142857
  7
KANJI9
100
AcDbText
  0
TEXT
  5
602
330
1F
100
AcDbEntity
  8
2
  6
Continuous
 62
     1
100
AcDbText
 10
644.92
 20
151.87
 30
0.0
 40
3.5
  1
ＭＯＤＥ
 41
0.357142857
  7
KANJI9
100
AcDbText
  0
ARC
  5
603
330
1F
100
AcDbEntity
  8
2
  6
Continuous
 62
     1
100
AcDbCircle
 10
582.353604417
 20
614.14
 30
0.0
 40
0.5
100
AcDbArc
 50
221.423665625
 51
270.0
  0
ARC
  5
604
330
1F
100
AcDbEntity
  8
2
  6
Continuous
 62
     1
100
AcDbCircle
 10
551.346395583
 20
614.14
 30
0.0
 40
0.5
100
AcDbArc
 50
270.0
 51
318.576334375
  0
ARC
  5
605
330
1F
100
AcDbEntity
  8
2
  6
Continuous
 62
     1
100
AcDbCircle
 10
491.346395583
 20
614.14
 30
0.0
 40
0.5
100
AcDbArc
 50
270.0
 51
318.576334375
  0
ARC
  5
606
330
1F
100
AcDbEntity
  8
2
  6
Continuous
 62
     1
100
AcDbCircle
 10
522.353604417
 20
614.14
 30
0.0
 40
0.5
100
AcDbArc
 50
221.423665625
 51
270.0
  0
ARC
  5
607
330
1F
100
AcDbEntity
  8
2
  6
Continuous
 62
     1
100
AcDbCircle
 10
431.346395583
 20
614.14
 30
0.0
 40
0.5
100
AcDbArc
 50
270.0
 51
318.576334375
  0
ARC
  5
608
330
1F
100
AcDbEntity
  8
2
  6
Continuous
 62
     1
100
AcDbCircle
 10
462.353604417
 20
614.14
 30
0.0
 40
0.5
100
AcDbArc
 50
221.423665625
 51
270.0
  0
LINE
  5
609
330
1F
100
AcDbEntity
  8
2
  6
Continuous
 62
     2
100
AcDbLine
 10
413.85
 20
759.14
 30
0.0
 11
398.35
 21
759.14
 31
0.0
  0
LINE
  5
60A
330
1F
100
AcDbEntity
  8
2
  6
Continuous
 62
     2
100
AcDbLine
 10
398.35
 20
733.94
 30
0.0
 11
398.35
 21
759.14
 31
0.0
  0
LWPOLYLINE
  5
60C
330
1F
100
AcDbEntity
  8
2
  6
Continuous
 62
     2
100
AcDbPolyline
 90
     3
 70
   128
 43
0.0
 10
398.35
 20
733.94
 10
413.85
 20
733.94
 10
413.85
 20
759.14
  0
LINE
  5
60D
330
1F
100
AcDbEntity
  8
2
  6
Continuous
 62
     2
100
AcDbLine
 10
643.05
 20
162.94
 30
0.0
 11
651.05
 21
162.94
 31
0.0
  0
LINE
  5
60E
330
1F
100
AcDbEntity
  8
2
  6
Continuous
 62
     2
100
AcDbLine
 10
643.05
 20
162.94
 30
0.0
 11
643.05
 21
155.94
 31
0.0
  0
LINE
  5
60F
330
1F
100
AcDbEntity
  8
2
  6
Continuous
 62
     2
100
AcDbLine
 10
651.05
 20
162.94
 30
0.0
 11
651.05
 21
155.94
 31
0.0
  0
LINE
  5
610
330
1F
100
AcDbEntity
  8
2
  6
Continuous
 62
     2
100
AcDbLine
 10
643.05
 20
155.94
 30
0.0
 11
651.05
 21
155.94
 31
0.0
  0
LINE
  5
611
330
1F
100
AcDbEntity
  8
2
  6
Continuous
 62
     2
100
AcDbLine
 10
293.4
 20
163.94
 30
0.0
 11
308.4
 21
163.94
 31
0.0
  0
LINE
  5
612
330
1F
100
AcDbEntity
  8
2
  6
Continuous
 62
     2
100
AcDbLine
 10
293.4
 20
163.94
 30
0.0
 11
293.4
 21
138.94
 31
0.0
  0
LINE
  5
613
330
1F
100
AcDbEntity
  8
2
  6
Continuous
 62
     2
100
AcDbLine
 10
293.4
 20
138.94
 30
0.0
 11
308.4
 21
138.94
 31
0.0
  0
LINE
  5
614
330
1F
100
AcDbEntity
  8
2
  6
Continuous
 62
     2
100
AcDbLine
 10
308.4
 20
163.94
 30
0.0
 11
308.4
 21
138.94
 31
0.0
  0
LINE
  5
615
330
1F
100
AcDbEntity
  8
3
  6
Continuous
 62
     1
100
AcDbLine
 10
291.29
 20
167.39
 30
0.0
 11
286.75
 21
195.94
 31
0.0
  0
LINE
  5
616
330
1F
100
AcDbEntity
  8
3
  6
Continuous
 62
     1
100
AcDbLine
 10
291.29
 20
167.39
 30
0.0
 11
292.069344556
 21
174.849398237
 31
0.0
  0
LINE
  5
617
330
1F
100
AcDbEntity
  8
3
  6
Continuous
 62
     1
100
AcDbLine
 10
291.29
 20
167.39
 30
0.0
 11
288.235233065
 21
174.239700648
 31
0.0
  0
LINE
  5
618
330
1F
100
AcDbEntity
  8
3
  6
Continuous
 62
     1
100
AcDbLine
 10
286.75
 20
195.94
 30
0.0
 11
261.25
 21
195.94
 31
0.0
  0
TEXT
  5
619
330
1F
100
AcDbEntity
  8
3
  6
Continuous
 62
     1
100
AcDbText
 10
261.25
 20
198.94
 30
0.0
 40
9.0
  1
起動ＳＷ
 41
0.9
 51
15.0
  7
KANJI10
100
AcDbText
  0
LINE
  5
61B
330
1F
100
AcDbEntity
  8
3
  6
Continuous
 62
     1
100
AcDbLine
 10
340.66
 20
167.66
 30
0.0
 11
346.47
 21
195.96
 31
0.0
  0
LINE
  5
61C
330
1F
100
AcDbEntity
  8
3
  6
Continuous
 62
     1
100
AcDbLine
 10
340.66
 20
167.66
 30
0.0
 11
344.018385132
 21
174.36606064
 31
0.0
  0
LINE
  5
61D
330
1F
100
AcDbEntity
  8
3
  6
Continuous
 62
     1
100
AcDbLine
 10
340.66
 20
167.66
 30
0.0
 11
340.215416521
 21
175.146811439
 31
0.0
  0
LINE
  5
61E
330
1F
100
AcDbEntity
  8
3
  6
Continuous
 62
     1
100
AcDbLine
 10
346.47
 20
195.96
 30
0.0
 11
371.67
 21
195.96
 31
0.0
  0
TEXT
  5
61F
330
1F
100
AcDbEntity
  8
3
  6
Continuous
 62
     1
100
AcDbText
 10
346.47
 20
198.96
 30
0.0
 40
9.0
  1
表示灯
 41
0.9
 51
15.0
  7
KANJI10
100
AcDbText
  0
LINE
  5
620
330
1F
100
AcDbEntity
  8
2
  6
Continuous
 62
     1
100
AcDbLine
 10
619.44
 20
167.44
 30
0.0
 11
619.681168472
 21
174.936121515
 31
0.0
  0
LINE
  5
621
330
1F
100
AcDbEntity
  8
2
  6
Continuous
 62
     1
100
AcDbLine
 10
619.44
 20
167.44
 30
0.0
 11
615.900797265
 21
174.052415898
 31
0.0
  0
LINE
  5
622
330
1F
100
AcDbEntity
  8
2
  6
Continuous
 62
     1
100
AcDbLine
 10
619.44
 20
167.44
 30
0.0
 11
612.89
 21
195.46
 31
0.0
  0
LINE
  5
623
330
1F
100
AcDbEntity
  8
2
  6
Continuous
 62
     1
100
AcDbLine
 10
612.89
 20
195.46
 30
0.0
 11
587.69
 21
195.46
 31
0.0
  0
TEXT
  5
624
330
1F
100
AcDbEntity
  8
2
  6
Continuous
 62
     1
100
AcDbText
 10
587.69
 20
198.46
 30
0.0
 40
9.0
  1
表示灯
 41
0.9
 51
10.0
  7
KANJI11
100
AcDbText
  0
LINE
  5
626
330
1F
100
AcDbEntity
  8
2
  6
Continuous
 62
     1
100
AcDbLine
 10
643.48
 20
169.04
 30
0.0
 11
643.239261765
 21
176.536135344
 31
0.0
  0
LINE
  5
627
330
1F
100
AcDbEntity
  8
2
  6
Continuous
 62
     1
100
AcDbLine
 10
643.48
 20
169.04
 30
0.0
 11
639.5234469
 21
175.411474521
 31
0.0
  0
LINE
  5
628
330
1F
100
AcDbEntity
  8
2
  6
Continuous
 62
     1
100
AcDbLine
 10
643.48
 20
169.04
 30
0.0
 11
629.53
 21
215.13
 31
0.0
  0
LINE
  5
629
330
1F
100
AcDbEntity
  8
2
  6
Continuous
 62
     1
100
AcDbLine
 10
629.53
 20
215.13
 30
0.0
 11
544.93
 21
215.13
 31
0.0
  0
TEXT
  5
62A
330
1F
100
AcDbEntity
  8
2
  6
Continuous
 62
     1
100
AcDbText
 10
544.93
 20
218.13
 30
0.0
 40
9.0
  1
周波数切替、モート゛切替
 41
0.9
 51
10.0
  7
KANJI11
100
AcDbText
  0
LINE
  5
62B
330
1F
100
AcDbEntity
  8
3
  6
Continuous
 62
     1
100
AcDbLine
 10
813.35
 20
233.42
 30
0.0
 11
816.531409501
 21
226.628193643
 31
0.0
  0
LINE
  5
62C
330
1F
100
AcDbEntity
  8
3
  6
Continuous
 62
     1
100
AcDbLine
 10
813.35
 20
233.42
 30
0.0
 11
819.501084626
 21
229.128827908
 31
0.0
  0
LWPOLYLINE
  5
62E
330
1F
100
AcDbEntity
  8
3
  6
Continuous
 62
     1
100
AcDbPolyline
 90
     3
 70
   128
 43
0.0
 10
813.35
 20
233.42
 10
831.53
 20
211.83
 10
848.33
 20
211.83
  0
TEXT
  5
62F
330
1F
100
AcDbEntity
  8
3
  6
Continuous
 62
     1
100
AcDbText
 10
831.53
 20
214.83
 30
0.0
 40
9.0
  1
取手
 41
0.9
 51
15.0
  7
KANJI10
100
AcDbText
  0
CIRCLE
  5
630
330
1F
100
AcDbEntity
  8
0
  6
Continuous
 62
     1
100
AcDbCircle
 10
264.85
 20
739.24
 30
0.0
 40
9.6
  0
ARC
  5
631
330
1F
100
AcDbEntity
  8
0
  6
Continuous
 62
     1
100
AcDbCircle
 10
260.85
 20
742.74
 30
0.0
 40
2.0
100
AcDbArc
 50
90.0
 51
180.0
  0
LWPOLYLINE
  5
634
330
1F
100
AcDbEntity
  8
0
  6
Continuous
 62
     1
100
AcDbPolyline
 90
     3
 70
   128
 43
0.0
 10
260.85
 20
744.74
 42
0.0
 10
268.85
 20
744.74
 42
-0.414213562
 10
270.85
 20
742.74
 42
0.0
  0
LINE
  5
635
330
1F
100
AcDbEntity
  8
0
  6
Continuous
 62
     1
100
AcDbLine
 10
270.85
 20
735.74
 30
0.0
 11
270.85
 21
742.74
 31
0.0
  0
ARC
  5
636
330
1F
100
AcDbEntity
  8
0
  6
Continuous
 62
     1
100
AcDbCircle
 10
268.85
 20
735.74
 30
0.0
 40
2.0
100
AcDbArc
 50
270.0
 51
0.0
  0
LINE
  5
637
330
1F
100
AcDbEntity
  8
0
  6
Continuous
 62
     1
100
AcDbLine
 10
258.85
 20
735.74
 30
0.0
 11
258.85
 21
742.74
 31
0.0
  0
LINE
  5
638
330
1F
100
AcDbEntity
  8
0
  6
Continuous
 62
     1
100
AcDbLine
 10
260.85
 20
733.74
 30
0.0
 11
268.85
 21
733.74
 31
0.0
  0
ARC
  5
639
330
1F
100
AcDbEntity
  8
0
  6
Continuous
 62
     1
100
AcDbCircle
 10
260.85
 20
735.74
 30
0.0
 40
2.0
100
AcDbArc
 50
180.0
 51
270.0
  0
LINE
  5
63A
330
1F
100
AcDbEntity
  8
0
  6
Continuous
 62
     1
100
AcDbLine
 10
270.35
 20
735.74
 30
0.0
 11
270.35
 21
742.74
 31
0.0
  0
LINE
  5
63B
330
1F
100
AcDbEntity
  8
0
  6
Continuous
 62
     1
100
AcDbLine
 10
260.85
 20
744.24
 30
0.0
 11
268.85
 21
744.24
 31
0.0
  0
LINE
  5
63C
330
1F
100
AcDbEntity
  8
0
  6
Continuous
 62
     1
100
AcDbLine
 10
259.35
 20
735.74
 30
0.0
 11
259.35
 21
742.74
 31
0.0
  0
LINE
  5
63D
330
1F
100
AcDbEntity
  8
0
  6
Continuous
 62
     1
100
AcDbLine
 10
260.85
 20
734.24
 30
0.0
 11
268.85
 21
734.24
 31
0.0
  0
ARC
  5
63E
330
1F
100
AcDbEntity
  8
0
  6
Continuous
 62
     1
100
AcDbCircle
 10
260.85
 20
735.74
 30
0.0
 40
1.5
100
AcDbArc
 50
180.0
 51
270.0
  0
ARC
  5
63F
330
1F
100
AcDbEntity
  8
0
  6
Continuous
 62
     1
100
AcDbCircle
 10
260.85
 20
742.74
 30
0.0
 40
1.5
100
AcDbArc
 50
90.0
 51
180.0
  0
ARC
  5
640
330
1F
100
AcDbEntity
  8
0
  6
Continuous
 62
     1
100
AcDbCircle
 10
268.85
 20
742.74
 30
0.0
 40
1.5
100
AcDbArc
 50
0.0
 51
90.0
  0
ARC
  5
641
330
1F
100
AcDbEntity
  8
0
  6
Continuous
 62
     1
100
AcDbCircle
 10
268.85
 20
735.74
 30
0.0
 40
1.5
100
AcDbArc
 50
270.0
 51
0.0
  0
LINE
  5
642
330
1F
100
AcDbEntity
  8
0
  6
Continuous
 62
     1
100
AcDbLine
 10
260.35
 20
735.74
 30
0.0
 11
260.35
 21
742.74
 31
0.0
  0
ARC
  5
643
330
1F
100
AcDbEntity
  8
0
  6
Continuous
 62
     1
100
AcDbCircle
 10
260.85
 20
742.74
 30
0.0
 40
0.5
100
AcDbArc
 50
90.0
 51
180.0
  0
LINE
  5
644
330
1F
100
AcDbEntity
  8
0
  6
Continuous
 62
     1
100
AcDbLine
 10
260.85
 20
743.24
 30
0.0
 11
268.85
 21
743.24
 31
0.0
  0
ARC
  5
645
330
1F
100
AcDbEntity
  8
0
  6
Continuous
 62
     1
100
AcDbCircle
 10
268.85
 20
742.74
 30
0.0
 40
0.5
100
AcDbArc
 50
0.0
 51
90.0
  0
LINE
  5
646
330
1F
100
AcDbEntity
  8
0
  6
Continuous
 62
     1
100
AcDbLine
 10
269.35
 20
735.74
 30
0.0
 11
269.35
 21
742.74
 31
0.0
  0
ARC
  5
647
330
1F
100
AcDbEntity
  8
0
  6
Continuous
 62
     1
100
AcDbCircle
 10
268.85
 20
735.74
 30
0.0
 40
0.5
100
AcDbArc
 50
270.0
 51
0.0
  0
LINE
  5
648
330
1F
100
AcDbEntity
  8
0
  6
Continuous
 62
     1
100
AcDbLine
 10
260.85
 20
735.24
 30
0.0
 11
268.85
 21
735.24
 31
0.0
  0
ARC
  5
649
330
1F
100
AcDbEntity
  8
0
  6
Continuous
 62
     1
100
AcDbCircle
 10
260.85
 20
735.74
 30
0.0
 40
0.5
100
AcDbArc
 50
180.0
 51
270.0
  0
LINE
  5
64A
330
1F
100
AcDbEntity
  8
0
  6
Continuous
 62
     1
100
AcDbLine
 10
261.6
 20
737.74
 30
0.0
 11
261.6
 21
740.74
 31
0.0
  0
LINE
  5
64B
330
1F
100
AcDbEntity
  8
0
  6
Continuous
 62
     1
100
AcDbLine
 10
261.6
 20
737.74
 30
0.0
 11
268.1
 21
737.74
 31
0.0
  0
LINE
  5
64C
330
1F
100
AcDbEntity
  8
0
  6
Continuous
 62
     1
100
AcDbLine
 10
268.1
 20
737.74
 30
0.0
 11
268.1
 21
740.74
 31
0.0
  0
LINE
  5
64D
330
1F
100
AcDbEntity
  8
0
  6
Continuous
 62
     1
100
AcDbLine
 10
261.6
 20
740.74
 30
0.0
 11
268.1
 21
740.74
 31
0.0
  0
CIRCLE
  5
64E
330
1F
100
AcDbEntity
  8
0
  6
Continuous
 62
     1
100
AcDbCircle
 10
264.85
 20
739.24
 30
0.0
 40
9.1
  0
TEXT
  5
64F
330
1F
100
AcDbEntity
  8
18
  6
Continuous
 62
     1
100
AcDbText
 10
271.44
 20
754.18
 30
0.0
 40
3.75
  1
ＡＣ　ＩＮ
 50
180.0
 41
0.92
  7
KANJI6
100
AcDbText
  0
TEXT
  5
650
330
1F
100
AcDbEntity
  8
18
  6
Continuous
 62
     1
100
AcDbText
 10
275.295
 20
758.68
 30
0.0
 40
3.75
  1
ＢＲＥＡＫＥＲ
 50
180.0
 41
0.92
  7
KANJI6
100
AcDbText
  0
LINE
  5
651
330
1F
100
AcDbEntity
  8
2
  6
Continuous
 62
     1
100
AcDbLine
 10
257.827179223
 20
729.402820777
 30
0.0
 11
236.277179223
 21
699.132820777
 31
0.0
  0
LINE
  5
652
330
1F
100
AcDbEntity
  8
2
  6
Continuous
 62
     1
100
AcDbLine
 10
257.827179223
 20
729.402820777
 30
0.0
 11
250.116703608
 21
723.035045201
 31
0.0
  0
LINE
  5
653
330
1F
100
AcDbEntity
  8
2
  6
Continuous
 62
     1
100
AcDbLine
 10
257.827179223
 20
729.402820777
 30
0.0
 11
254.333599253
 21
720.032927555
 31
0.0
  0
LINE
  5
654
330
1F
100
AcDbEntity
  8
2
  6
Continuous
 62
     1
100
AcDbLine
 10
236.277179223
 20
699.132820777
 30
0.0
 11
168.277179223
 21
699.132820777
 31
0.0
  0
TEXT
  5
655
330
1F
100
AcDbEntity
  8
2
  6
Continuous
 62
     1
100
AcDbText
 10
168.277179223
 20
704.132820777
 30
0.0
 40
10.0
  1
ＡＣ入力ブレーカー
 41
0.85
  7
KANJI0
100
AcDbText
  0
LINE
  5
656
330
1F
100
AcDbEntity
  8
0
  6
Continuous
 62
     1
100
AcDbLine
 10
255.25
 20
616.14
 30
0.0
 11
274.45
 21
616.14
 31
0.0
  0
LINE
  5
657
330
1F
100
AcDbEntity
  8
0
  6
Continuous
 62
     1
100
AcDbLine
 10
255.25
 20
616.14
 30
0.0
 11
255.25
 21
613.64
 31
0.0
  0
LINE
  5
658
330
1F
100
AcDbEntity
  8
0
  6
Continuous
 62
     1
100
AcDbLine
 10
255.25
 20
616.14
 30
0.0
 11
255.75
 21
616.64
 31
0.0
  0
LINE
  5
659
330
1F
100
AcDbEntity
  8
0
  6
Continuous
 62
     1
100
AcDbLine
 10
255.75
 20
616.64
 30
0.0
 11
273.95
 21
616.64
 31
0.0
  0
LWPOLYLINE
  5
65B
330
1F
100
AcDbEntity
  8
0
  6
Continuous
 62
     1
100
AcDbPolyline
 90
     3
 70
   128
 43
0.0
 10
273.95
 20
616.64
 10
274.45
 20
616.14
 10
274.45
 20
613.64
  0
LINE
  5
65C
330
1F
100
AcDbEntity
  8
0
  6
Continuous
 62
     1
100
AcDbLine
 10
258.85
 20
616.64
 30
0.0
 11
259.35
 21
620.64
 31
0.0
  0
LWPOLYLINE
  5
65E
330
1F
100
AcDbEntity
  8
0
  6
Continuous
 62
     1
100
AcDbPolyline
 90
     3
 70
   128
 43
0.0
 10
259.35
 20
620.64
 10
270.35
 20
620.64
 10
270.85
 20
616.64
  0
TEXT
  5
65F
330
1F
100
AcDbEntity
  8
3
  6
Continuous
 62
     1
100
AcDbText
 10
897.83
 20
359.39
 30
0.0
 40
12.0
  1
単位：ｍｍ
 41
0.933333333
  7
KANJI12
100
AcDbText
  0
TEXT
  5
661
330
1F
100
AcDbEntity
  8
3
  6
Continuous
 62
     1
100
AcDbText
 10
897.83
 20
329.39
 30
0.0
 40
12.0
  1
ケース：鉄
 41
0.933333333
  7
KANJI12
100
AcDbText
  0
TEXT
  5
662
330
1F
100
AcDbEntity
  8
3
  6
Continuous
 62
     1
100
AcDbText
 10
897.83
 20
374.39
 30
0.0
 40
12.0
  1
公差：±１（図中指定無き寸法）
 41
0.933333333
  7
KANJI12
100
AcDbText
  0
TEXT
  5
663
330
1F
100
AcDbEntity
  8
3
  6
Continuous
 62
     1
100
AcDbText
 10
897.83
 20
299.39
 30
0.0
 40
12.0
  1
端子カバー：有り
 41
0.9
  7
KANJI13
100
AcDbText
  0
TEXT
  5
665
330
1F
100
AcDbEntity
  8
3
  6
Continuous
 62
     1
100
AcDbText
 10
897.83
 20
344.39
 30
0.0
 40
12.0
  1
質量：６．０Ｋｇ　ｔｙｐ
 41
0.933333333
  7
KANJI12
100
AcDbText
  0
TEXT
  5
666
330
1F
100
AcDbEntity
  8
3
  6
Continuous
 62
     1
100
AcDbText
 10
897.83
 20
314.39
 30
0.0
 40
12.0
  1
塗装：ライトグレー　レザーサテン塗装
 41
0.933333333
  7
KANJI12
100
AcDbText
  0
ENDSEC
  0
SECTION
  2
OBJECTS
  0
DICTIONARY
  5
C
330
0
100
AcDbDictionary
280
     0
281
     1
  3
ACAD_GROUP
350
D
  3
ACAD_LAYOUT
350
1A
  3
ACAD_MLINESTYLE
350
17
  3
ACAD_PLOTSETTINGS
350
19
  3
ACAD_PLOTSTYLENAME
350
E
  0
DICTIONARY
  5
D
102
{ACAD_REACTORS
330
C
102
}
330
C
100
AcDbDictionary
280
     0
281
     1
  0
DICTIONARY
  5
1A
102
{ACAD_REACTORS
330
C
102
}
330
C
100
AcDbDictionary
280
     0
281
     1
  3
Model
350
22
  3
ﾚｲｱｳﾄ1
350
1E
  3
ﾚｲｱｳﾄ2
350
26
  0
LAYOUT
  5
22
102
{ACAD_REACTORS
330
1A
102
}
330
1A
100
AcDbPlotSettings
  1

  2

  4

  6

 40
0.0
 41
0.0
 42
0.0
 43
0.0
 44
0.0
 45
0.0
 46
0.0
 47
0.0
 48
0.0
 49
0.0
140
0.0
141
0.0
142
1.0
143
1.0
 70
  1712
 72
     0
 73
     0
 74
     0
  7

 75
     0
147
1.0
148
0.0
149
0.0
100
AcDbLayout
  1
Model
 70
     1
 71
     0
 10
0.0
 20
0.0
 11
0.0
 21
0.0
 12
0.0
 22
0.0
 32
0.0
 14
0.0
 24
0.0
 34
0.0
 15
0.0
 25
0.0
 35
0.0
146
0.0
 13
0.0
 23
0.0
 33
0.0
 16
1.0
 26
0.0
 36
0.0
 17
0.0
 27
1.0
 37
0.0
 76
     0
330
1F
331
0
345
0
346
0
  0
LAYOUT
  5
1E
102
{ACAD_REACTORS
330
1A
102
}
330
1A
100
AcDbPlotSettings
  1

  2

  4

  6

 40
0.0
 41
0.0
 42
0.0
 43
0.0
 44
0.0
 45
0.0
 46
0.0
 47
0.0
 48
0.0
 49
0.0
140
0.0
141
0.0
142
1.0
143
1.0
 70
   688
 72
     0
 73
     0
 74
     5
  7

 75
    16
147
1.0
148
0.0
149
0.0
100
AcDbLayout
  1
ﾚｲｱｳﾄ1
 70
     1
 71
     1
 10
0.0
 20
0.0
 11
0.0
 21
0.0
 12
0.0
 22
0.0
 32
0.0
 14
0.0
 24
0.0
 34
0.0
 15
0.0
 25
0.0
 35
0.0
146
0.0
 13
0.0
 23
0.0
 33
0.0
 16
1.0
 26
0.0
 36
0.0
 17
0.0
 27
1.0
 37
0.0
 76
     0
330
1B
331
0
345
0
346
0
  0
LAYOUT
  5
26
102
{ACAD_REACTORS
330
1A
102
}
330
1A
100
AcDbPlotSettings
  1

  2

  4

  6

 40
0.0
 41
0.0
 42
0.0
 43
0.0
 44
0.0
 45
0.0
 46
0.0
 47
0.0
 48
0.0
 49
0.0
140
0.0
141
0.0
142
1.0
143
1.0
 70
   688
 72
     0
 73
     0
 74
     5
  7

 75
    16
147
1.0
148
0.0
149
0.0
100
AcDbLayout
  1
ﾚｲｱｳﾄ2
 70
     1
 71
     2
 10
0.0
 20
0.0
 11
0.0
 21
0.0
 12
0.0
 22
0.0
 32
0.0
 14
0.0
 24
0.0
 34
0.0
 15
0.0
 25
0.0
 35
0.0
146
0.0
 13
0.0
 23
0.0
 33
0.0
 16
1.0
 26
0.0
 36
0.0
 17
0.0
 27
1.0
 37
0.0
 76
     0
330
23
331
0
345
0
346
0
  0
DICTIONARY
  5
17
102
{ACAD_REACTORS
330
C
102
}
330
C
100
AcDbDictionary
280
     0
281
     1
  3
Standard
350
18
  0
MLINESTYLE
  5
18
102
{ACAD_REACTORS
330
17
102
}
330
17
100
AcDbMlineStyle
  2
STANDARD
 70
     0
  3

 62
   256
 51
90.0
 52
90.0
 71
     2
 49
0.5
 62
   256
  6
ByLayer
 49
-0.5
 62
   256
  6
ByLayer
  0
DICTIONARY
  5
19
102
{ACAD_REACTORS
330
C
102
}
330
C
100
AcDbDictionary
280
     0
281
     1
  0
ACDBDICTIONARYWDFLT
  5
E
330
C
100
AcDbDictionary
281
     0
  3
Normal
350
F
100
AcDbDictionaryWithDefault
340
F
  0
ACDBPLACEHOLDER
  5
F
102
{ACAD_REACTORS
330
E
102
}
330
E
  0
ENDSEC
  0
EOF
