  0
SECTION
  2
HEADER
  9
$ACADVER
  1
AC1015
  9
$ACADMAINTVER
 70
     6
  9
$DWGCODEPAGE
  3
ANSI_932
  9
$INSBASE
 10
0.0
 20
0.0
 30
0.0
  9
$EXTMIN
 10
0.0
 20
0.0
 30
1.000000E+20
  9
$EXTMAX
 10
1260.0
 20
891.0
 30
-1.000000E+20
  9
$LIMMIN
 10
0.0
 20
0.0
  9
$LIMMAX
 10
1260.0
 20
891.0
  9
$ORTHOMODE
 70
     0
  9
$REGENMODE
 70
     1
  9
$FILLMODE
 70
     1
  9
$QTEXTMODE
 70
     0
  9
$MIRRTEXT
 70
     1
  9
$LTSCALE
 40
1.0
  9
$ATTMODE
 70
     1
  9
$TEXTSIZE
 40
2.5
  9
$TRACEWID
 40
1.0
  9
$TEXTSTYLE
  7
Standard
  9
$CLAYER
  8
0
  9
$CELTYPE
  6
ByLayer
  9
$CECOLOR
 62
   256
  9
$CELTSCALE
 40
1.0
  9
$DISPSILH
 70
     0
  9
$DIMSCALE
 40
1.0
  9
$DIMASZ
 40
2.5
  9
$DIMEXO
 40
0.625
  9
$DIMDLI
 40
3.75
  9
$DIMRND
 40
0.0
  9
$DIMDLE
 40
0.0
  9
$DIMEXE
 40
1.25
  9
$DIMTP
 40
0.0
  9
$DIMTM
 40
0.0
  9
$DIMTXT
 40
2.5
  9
$DIMCEN
 40
2.5
  9
$DIMTSZ
 40
0.0
  9
$DIMTOL
 70
     0
  9
$DIMLIM
 70
     0
  9
$DIMTIH
 70
     0
  9
$DIMTOH
 70
     0
  9
$DIMSE1
 70
     0
  9
$DIMSE2
 70
     0
  9
$DIMTAD
 70
     1
  9
$DIMZIN
 70
     8
  9
$DIMBLK
  1

  9
$DIMASO
 70
     1
  9
$DIMSHO
 70
     1
  9
$DIMPOST
  1

  9
$DIMAPOST
  1

  9
$DIMALT
 70
     0
  9
$DIMALTD
 70
     3
  9
$DIMALTF
 40
0.03937007874016
  9
$DIMLFAC
 40
1.0
  9
$DIMTOFL
 70
     1
  9
$DIMTVP
 40
0.0
  9
$DIMTIX
 70
     0
  9
$DIMSOXD
 70
     0
  9
$DIMSAH
 70
     0
  9
$DIMBLK1
  1

  9
$DIMBLK2
  1

  9
$DIMSTYLE
  2
ISO-25
  9
$DIMCLRD
 70
     0
  9
$DIMCLRE
 70
     0
  9
$DIMCLRT
 70
     0
  9
$DIMTFAC
 40
1.0
  9
$DIMGAP
 40
0.625
  9
$DIMJUST
 70
     0
  9
$DIMSD1
 70
     0
  9
$DIMSD2
 70
     0
  9
$DIMTOLJ
 70
     0
  9
$DIMTZIN
 70
     8
  9
$DIMALTZ
 70
     0
  9
$DIMALTTZ
 70
     0
  9
$DIMUPT
 70
     0
  9
$DIMDEC
 70
     2
  9
$DIMTDEC
 70
     2
  9
$DIMALTU
 70
     2
  9
$DIMALTTD
 70
     3
  9
$DIMTXSTY
  7
Standard
  9
$DIMAUNIT
 70
     0
  9
$DIMADEC
 70
     0
  9
$DIMALTRND
 40
0.0
  9
$DIMAZIN
 70
     0
  9
$DIMDSEP
 70
    46
  9
$DIMATFIT
 70
     3
  9
$DIMFRAC
 70
     0
  9
$DIMLDRBLK
  1

  9
$DIMLUNIT
 70
     2
  9
$DIMLWD
 70
    -2
  9
$DIMLWE
 70
    -2
  9
$DIMTMOVE
 70
     0
  9
$LUNITS
 70
     2
  9
$LUPREC
 70
     4
  9
$SKETCHINC
 40
1.0
  9
$FILLETRAD
 40
10.0
  9
$AUNITS
 70
     0
  9
$AUPREC
 70
     0
  9
$MENU
  1
.
  9
$ELEVATION
 40
0.0
  9
$PELEVATION
 40
0.0
  9
$THICKNESS
 40
0.0
  9
$LIMCHECK
 70
     0
  9
$CHAMFERA
 40
10.0
  9
$CHAMFERB
 40
10.0
  9
$CHAMFERC
 40
20.0
  9
$CHAMFERD
 40
0.0
  9
$SKPOLY
 70
     0
  9
$TDCREATE
 40
2455854.000000
  9
$TDUCREATE
 40
0.000000000
  9
$TDUPDATE
 40
2455854.000000
  9
$TDUUPDATE
 40
2455854.000000
  9
$TDINDWG
 40
0.0
  9
$TDUSRTIMER
 40
0.0
  9
$USRTIMER
 70
     1
  9
$ANGBASE
 50
0.0
  9
$ANGDIR
 70
     0
  9
$PDMODE
 70
     0
  9
$PDSIZE
 40
0.0
  9
$PLINEWID
 40
0.0
  9
$SPLFRAME
 70
     0
  9
$SPLINETYPE
 70
     6
  9
$SPLINESEGS
 70
     8
  9
$HANDSEED
  5
036B
  9
$SURFTAB1
 70
     6
  9
$SURFTAB2
 70
     6
  9
$SURFTYPE
 70
     6
  9
$SURFU
 70
     6
  9
$SURFV
 70
     6
  9
$UCSBASE
  2

  9
$UCSNAME
  2

  9
$UCSORG
 10
0.0
 20
0.0
 30
0.0
  9
$UCSXDIR
 10
1.0
 20
0.0
 30
0.0
  9
$UCSYDIR
 10
0.0
 20
1.0
 30
0.0
  9
$UCSORTHOREF
  2

  9
$UCSORTHOVIEW
 70
     0
  9
$UCSORGTOP
 10
0.0
 20
0.0
 30
0.0
  9
$UCSORGBOTTOM
 10
0.0
 20
0.0
 30
0.0
  9
$UCSORGLEFT
 10
0.0
 20
0.0
 30
0.0
  9
$UCSORGRIGHT
 10
0.0
 20
0.0
 30
0.0
  9
$UCSORGFRONT
 10
0.0
 20
0.0
 30
0.0
  9
$UCSORGBACK
 10
0.0
 20
0.0
 30
0.0
  9
$PUCSBASE
  2

  9
$PUCSNAME
  2

  9
$PUCSORG
 10
0.0
 20
0.0
 30
0.0
  9
$PUCSXDIR
 10
1.0
 20
0.0
 30
0.0
  9
$PUCSYDIR
 10
0.0
 20
1.0
 30
0.0
  9
$PUCSORTHOREF
  2

  9
$PUCSORTHOVIEW
 70
     0
  9
$PUCSORGTOP
 10
0.0
 20
0.0
 30
0.0
  9
$PUCSORGBOTTOM
 10
0.0
 20
0.0
 30
0.0
  9
$PUCSORGLEFT
 10
0.0
 20
0.0
 30
0.0
  9
$PUCSORGRIGHT
 10
0.0
 20
0.0
 30
0.0
  9
$PUCSORGFRONT
 10
0.0
 20
0.0
 30
0.0
  9
$PUCSORGBACK
 10
0.0
 20
0.0
 30
0.0
  9
$USERI1
 70
     0
  9
$USERI2
 70
     0
  9
$USERI3
 70
     0
  9
$USERI4
 70
     0
  9
$USERI5
 70
     0
  9
$USERR1
 40
0.0
  9
$USERR2
 40
0.0
  9
$USERR3
 40
0.0
  9
$USERR4
 40
0.0
  9
$USERR5
 40
0.0
  9
$WORLDVIEW
 70
     1
  9
$SHADEDGE
 70
     3
  9
$SHADEDIF
 70
    70
  9
$TILEMODE
 70
     1
  9
$MAXACTVP
 70
    64
  9
$PINSBASE
 10
0.0
 20
0.0
 30
0.0
  9
$PLIMCHECK
 70
     0
  9
$PEXTMIN
 10
1.000000E+20
 20
1.000000E+20
 30
1.000000E+20
  9
$PEXTMAX
 10
-1.000000E+20
 20
-1.000000E+20
 30
-1.000000E+20
  9
$PLIMMIN
 10
0.0
 20
0.0
  9
$PLIMMAX
 10
0.0
 20
0.0
  9
$UNITMODE
 70
     0
  9
$VISRETAIN
 70
     0
  9
$PLINEGEN
 70
     0
  9
$PSLTSCALE
 70
     1
  9
$TREEDEPTH
 70
  3020
  9
$CMLSTYLE
  2
STANDARD
  9
$CMLJUST
 70
     0
  9
$CMLSCALE
 40
20.0
  9
$PROXYGRAPHICS
 70
     1
  9
$MEASUREMENT
 70
     1
  9
$CELWEIGHT
370
    -1
  9
$ENDCAPS
280
     0
  9
$JOINSTYLE
280
     0
  9
$LWDISPLAY
290
     0
  9
$INSUNITS
 70
     4
  9
$HYPERLINKBASE
  1

  9
$STYLESHEET
  1

  9
$XEDIT
290
     1
  9
$CEPSNTYPE
380
     0
  9
$PSTYLEMODE
290
     1
  9
$FINGERPRINTGUID
  2
{CCE619AA-6902-2897-98D6-C6ABD208D6CC}
  9
$VERSIONGUID
  2
{CCE619AA-6902-2897-98D6-C6ABD208D6CC}
  9
$EXTNAMES
290
     1
  9
$PSVPSCALE
 40
0.0
  0
ENDSEC
  0
SECTION
  2
CLASSES
  0
ENDSEC
  0
SECTION
  2
TABLES
  0
TABLE
  2
VPORT
  5
8
330
0
100
AcDbSymbolTable
 70
     3
  0
VPORT
  5
29
330
8
100
AcDbSymbolTableRecord
100
AcDbViewportTableRecord
  2
*Active
 70
     0
 10
0.0
 20
0.0
 11
1.0
 21
1.0
 12
630.0
 22
445.5
 13
0.0
 23
0.0
 14
10.0
 24
10.0
 15
0.0
 25
0.0
 16
0.0
 26
0.0
 36
1.0
 17
0.0
 27
0.0
 37
0.0
 40
891.0
 41
1.414141414
 42
50.0
 43
0.0
 44
0.0
 50
0.0
 51
0.0
 71
     0
 72
     0
 73
     0
 74
     0
 75
     0
 76
     0
 77
     0
 78
     0
281
     0
 65
     0
110
0.0
120
0.0
130
0.0
111
1.0
121
0.0
131
0.0
112
0.0
122
1.0
132
0.0
 79
     0
146
0.0
  0
ENDTAB
  0
TABLE
  2
LTYPE
  5
5
330
0
100
AcDbSymbolTable
 70
     5
  0
LTYPE
  5
14
330
5
100
AcDbSymbolTableRecord
100
AcDbLinetypeTableRecord
  2
ByBlock
 70
     0
  3

 72
    65
 73
     0
 40
0.0
  0
LTYPE
  5
15
330
5
100
AcDbSymbolTableRecord
100
AcDbLinetypeTableRecord
  2
ByLayer
 70
     0
  3

 72
    65
 73
     0
 40
0.0
  0
LTYPE
  5
16
330
5
100
AcDbSymbolTableRecord
100
AcDbLinetypeTableRecord
  2
Continuous
 70
     0
  3
Solid line
 72
    65
 73
     0
 40
0.0
  0
LTYPE
  5
DA
330
5
100
AcDbSymbolTableRecord
100
AcDbLinetypeTableRecord
  2
LTYPE1
 70
     0
  3
HIDDEN
 72
    65
 73
     2
 40
5.0
 49
3.0
 74
     0
 49
-2.0
 74
     0
  0
LTYPE
  5
34F
330
5
100
AcDbSymbolTableRecord
100
AcDbLinetypeTableRecord
  2
LTYPE2
 70
     0
  3
HIDDEN
 72
    65
 73
     2
 40
2.0
 49
1.2
 74
     0
 49
-0.8
 74
     0
  0
ENDTAB
  0
TABLE
  2
LAYER
  5
2
330
0
100
AcDbSymbolTable
 70
   128
  0
LAYER
  5
10
330
2
100
AcDbSymbolTableRecord
100
AcDbLayerTableRecord
  2
0
 70
     0
 62
     7
  6
Continuous
290
     1
370
    -3
390
F
  0
LAYER
  5
2A
330
2
100
AcDbSymbolTableRecord
100
AcDbLayerTableRecord
  2
2
 70
     0
 62
     7
  6
Continuous
290
     1
370
    -3
390
F
  0
LAYER
  5
2B
330
2
100
AcDbSymbolTableRecord
100
AcDbLayerTableRecord
  2
3
 70
     0
 62
     7
  6
Continuous
290
     1
370
    -3
390
F
  0
LAYER
  5
2C
330
2
100
AcDbSymbolTableRecord
100
AcDbLayerTableRecord
  2
4
 70
     0
 62
     7
  6
Continuous
290
     1
370
    -3
390
F
  0
LAYER
  5
2D
330
2
100
AcDbSymbolTableRecord
100
AcDbLayerTableRecord
  2
5
 70
     0
 62
     7
  6
Continuous
290
     1
370
    -3
390
F
  0
LAYER
  5
2E
330
2
100
AcDbSymbolTableRecord
100
AcDbLayerTableRecord
  2
6
 70
     0
 62
     7
  6
Continuous
290
     1
370
    -3
390
F
  0
LAYER
  5
2F
330
2
100
AcDbSymbolTableRecord
100
AcDbLayerTableRecord
  2
7
 70
     0
 62
     7
  6
Continuous
290
     1
370
    -3
390
F
  0
LAYER
  5
30
330
2
100
AcDbSymbolTableRecord
100
AcDbLayerTableRecord
  2
8
 70
     0
 62
     7
  6
Continuous
290
     1
370
    -3
390
F
  0
LAYER
  5
31
330
2
100
AcDbSymbolTableRecord
100
AcDbLayerTableRecord
  2
9
 70
     0
 62
     7
  6
Continuous
290
     1
370
    -3
390
F
  0
LAYER
  5
32
330
2
100
AcDbSymbolTableRecord
100
AcDbLayerTableRecord
  2
10
 70
     0
 62
     7
  6
Continuous
290
     1
370
    -3
390
F
  0
LAYER
  5
33
330
2
100
AcDbSymbolTableRecord
100
AcDbLayerTableRecord
  2
11
 70
     0
 62
     7
  6
Continuous
290
     1
370
    -3
390
F
  0
LAYER
  5
34
330
2
100
AcDbSymbolTableRecord
100
AcDbLayerTableRecord
  2
12
 70
     0
 62
     7
  6
Continuous
290
     1
370
    -3
390
F
  0
LAYER
  5
35
330
2
100
AcDbSymbolTableRecord
100
AcDbLayerTableRecord
  2
13
 70
     0
 62
     7
  6
Continuous
290
     1
370
    -3
390
F
  0
LAYER
  5
36
330
2
100
AcDbSymbolTableRecord
100
AcDbLayerTableRecord
  2
14
 70
     0
 62
     7
  6
Continuous
290
     1
370
    -3
390
F
  0
LAYER
  5
37
330
2
100
AcDbSymbolTableRecord
100
AcDbLayerTableRecord
  2
15
 70
     0
 62
     7
  6
Continuous
290
     1
370
    -3
390
F
  0
LAYER
  5
38
330
2
100
AcDbSymbolTableRecord
100
AcDbLayerTableRecord
  2
16
 70
     0
 62
     7
  6
Continuous
290
     1
370
    -3
390
F
  0
LAYER
  5
39
330
2
100
AcDbSymbolTableRecord
100
AcDbLayerTableRecord
  2
17
 70
     0
 62
     7
  6
Continuous
290
     1
370
    -3
390
F
  0
LAYER
  5
3A
330
2
100
AcDbSymbolTableRecord
100
AcDbLayerTableRecord
  2
18
 70
     0
 62
     7
  6
Continuous
290
     1
370
    -3
390
F
  0
LAYER
  5
3B
330
2
100
AcDbSymbolTableRecord
100
AcDbLayerTableRecord
  2
19
 70
     0
 62
     7
  6
Continuous
290
     1
370
    -3
390
F
  0
LAYER
  5
3C
330
2
100
AcDbSymbolTableRecord
100
AcDbLayerTableRecord
  2
20
 70
     0
 62
     7
  6
Continuous
290
     1
370
    -3
390
F
  0
LAYER
  5
3D
330
2
100
AcDbSymbolTableRecord
100
AcDbLayerTableRecord
  2
21
 70
     0
 62
     7
  6
Continuous
290
     1
370
    -3
390
F
  0
LAYER
  5
3E
330
2
100
AcDbSymbolTableRecord
100
AcDbLayerTableRecord
  2
22
 70
     0
 62
     7
  6
Continuous
290
     1
370
    -3
390
F
  0
LAYER
  5
3F
330
2
100
AcDbSymbolTableRecord
100
AcDbLayerTableRecord
  2
23
 70
     0
 62
     7
  6
Continuous
290
     1
370
    -3
390
F
  0
LAYER
  5
40
330
2
100
AcDbSymbolTableRecord
100
AcDbLayerTableRecord
  2
24
 70
     0
 62
     7
  6
Continuous
290
     1
370
    -3
390
F
  0
LAYER
  5
41
330
2
100
AcDbSymbolTableRecord
100
AcDbLayerTableRecord
  2
25
 70
     0
 62
     7
  6
Continuous
290
     1
370
    -3
390
F
  0
LAYER
  5
42
330
2
100
AcDbSymbolTableRecord
100
AcDbLayerTableRecord
  2
26
 70
     0
 62
     7
  6
Continuous
290
     1
370
    -3
390
F
  0
LAYER
  5
43
330
2
100
AcDbSymbolTableRecord
100
AcDbLayerTableRecord
  2
27
 70
     0
 62
     7
  6
Continuous
290
     1
370
    -3
390
F
  0
LAYER
  5
44
330
2
100
AcDbSymbolTableRecord
100
AcDbLayerTableRecord
  2
28
 70
     0
 62
     7
  6
Continuous
290
     1
370
    -3
390
F
  0
LAYER
  5
45
330
2
100
AcDbSymbolTableRecord
100
AcDbLayerTableRecord
  2
29
 70
     0
 62
     7
  6
Continuous
290
     1
370
    -3
390
F
  0
LAYER
  5
46
330
2
100
AcDbSymbolTableRecord
100
AcDbLayerTableRecord
  2
30
 70
     0
 62
     7
  6
Continuous
290
     1
370
    -3
390
F
  0
LAYER
  5
47
330
2
100
AcDbSymbolTableRecord
100
AcDbLayerTableRecord
  2
31
 70
     0
 62
     7
  6
Continuous
290
     1
370
    -3
390
F
  0
LAYER
  5
48
330
2
100
AcDbSymbolTableRecord
100
AcDbLayerTableRecord
  2
32
 70
     0
 62
     7
  6
Continuous
290
     1
370
    -3
390
F
  0
LAYER
  5
49
330
2
100
AcDbSymbolTableRecord
100
AcDbLayerTableRecord
  2
33
 70
     0
 62
     7
  6
Continuous
290
     1
370
    -3
390
F
  0
LAYER
  5
4A
330
2
100
AcDbSymbolTableRecord
100
AcDbLayerTableRecord
  2
34
 70
     0
 62
     7
  6
Continuous
290
     1
370
    -3
390
F
  0
LAYER
  5
4B
330
2
100
AcDbSymbolTableRecord
100
AcDbLayerTableRecord
  2
35
 70
     0
 62
     7
  6
Continuous
290
     1
370
    -3
390
F
  0
LAYER
  5
4C
330
2
100
AcDbSymbolTableRecord
100
AcDbLayerTableRecord
  2
36
 70
     0
 62
     7
  6
Continuous
290
     1
370
    -3
390
F
  0
LAYER
  5
4D
330
2
100
AcDbSymbolTableRecord
100
AcDbLayerTableRecord
  2
37
 70
     0
 62
     7
  6
Continuous
290
     1
370
    -3
390
F
  0
LAYER
  5
4E
330
2
100
AcDbSymbolTableRecord
100
AcDbLayerTableRecord
  2
38
 70
     0
 62
     7
  6
Continuous
290
     1
370
    -3
390
F
  0
LAYER
  5
4F
330
2
100
AcDbSymbolTableRecord
100
AcDbLayerTableRecord
  2
39
 70
     0
 62
     7
  6
Continuous
290
     1
370
    -3
390
F
  0
LAYER
  5
50
330
2
100
AcDbSymbolTableRecord
100
AcDbLayerTableRecord
  2
40
 70
     0
 62
     7
  6
Continuous
290
     1
370
    -3
390
F
  0
LAYER
  5
51
330
2
100
AcDbSymbolTableRecord
100
AcDbLayerTableRecord
  2
41
 70
     0
 62
     7
  6
Continuous
290
     1
370
    -3
390
F
  0
LAYER
  5
52
330
2
100
AcDbSymbolTableRecord
100
AcDbLayerTableRecord
  2
42
 70
     0
 62
     7
  6
Continuous
290
     1
370
    -3
390
F
  0
LAYER
  5
53
330
2
100
AcDbSymbolTableRecord
100
AcDbLayerTableRecord
  2
43
 70
     0
 62
     7
  6
Continuous
290
     1
370
    -3
390
F
  0
LAYER
  5
54
330
2
100
AcDbSymbolTableRecord
100
AcDbLayerTableRecord
  2
44
 70
     0
 62
     7
  6
Continuous
290
     1
370
    -3
390
F
  0
LAYER
  5
55
330
2
100
AcDbSymbolTableRecord
100
AcDbLayerTableRecord
  2
45
 70
     0
 62
     7
  6
Continuous
290
     1
370
    -3
390
F
  0
LAYER
  5
56
330
2
100
AcDbSymbolTableRecord
100
AcDbLayerTableRecord
  2
46
 70
     0
 62
     7
  6
Continuous
290
     1
370
    -3
390
F
  0
LAYER
  5
57
330
2
100
AcDbSymbolTableRecord
100
AcDbLayerTableRecord
  2
47
 70
     0
 62
     7
  6
Continuous
290
     1
370
    -3
390
F
  0
LAYER
  5
58
330
2
100
AcDbSymbolTableRecord
100
AcDbLayerTableRecord
  2
48
 70
     0
 62
     7
  6
Continuous
290
     1
370
    -3
390
F
  0
LAYER
  5
59
330
2
100
AcDbSymbolTableRecord
100
AcDbLayerTableRecord
  2
49
 70
     0
 62
     7
  6
Continuous
290
     1
370
    -3
390
F
  0
LAYER
  5
5A
330
2
100
AcDbSymbolTableRecord
100
AcDbLayerTableRecord
  2
50
 70
     0
 62
     7
  6
Continuous
290
     1
370
    -3
390
F
  0
LAYER
  5
5B
330
2
100
AcDbSymbolTableRecord
100
AcDbLayerTableRecord
  2
51
 70
     0
 62
     7
  6
Continuous
290
     1
370
    -3
390
F
  0
LAYER
  5
5C
330
2
100
AcDbSymbolTableRecord
100
AcDbLayerTableRecord
  2
52
 70
     0
 62
     7
  6
Continuous
290
     1
370
    -3
390
F
  0
LAYER
  5
5D
330
2
100
AcDbSymbolTableRecord
100
AcDbLayerTableRecord
  2
53
 70
     0
 62
     7
  6
Continuous
290
     1
370
    -3
390
F
  0
LAYER
  5
5E
330
2
100
AcDbSymbolTableRecord
100
AcDbLayerTableRecord
  2
54
 70
     0
 62
     7
  6
Continuous
290
     1
370
    -3
390
F
  0
LAYER
  5
5F
330
2
100
AcDbSymbolTableRecord
100
AcDbLayerTableRecord
  2
55
 70
     0
 62
     7
  6
Continuous
290
     1
370
    -3
390
F
  0
LAYER
  5
60
330
2
100
AcDbSymbolTableRecord
100
AcDbLayerTableRecord
  2
56
 70
     0
 62
     7
  6
Continuous
290
     1
370
    -3
390
F
  0
LAYER
  5
61
330
2
100
AcDbSymbolTableRecord
100
AcDbLayerTableRecord
  2
57
 70
     0
 62
     7
  6
Continuous
290
     1
370
    -3
390
F
  0
LAYER
  5
62
330
2
100
AcDbSymbolTableRecord
100
AcDbLayerTableRecord
  2
58
 70
     0
 62
     7
  6
Continuous
290
     1
370
    -3
390
F
  0
LAYER
  5
63
330
2
100
AcDbSymbolTableRecord
100
AcDbLayerTableRecord
  2
59
 70
     0
 62
     7
  6
Continuous
290
     1
370
    -3
390
F
  0
LAYER
  5
64
330
2
100
AcDbSymbolTableRecord
100
AcDbLayerTableRecord
  2
60
 70
     0
 62
     7
  6
Continuous
290
     1
370
    -3
390
F
  0
LAYER
  5
65
330
2
100
AcDbSymbolTableRecord
100
AcDbLayerTableRecord
  2
61
 70
     0
 62
     7
  6
Continuous
290
     1
370
    -3
390
F
  0
LAYER
  5
66
330
2
100
AcDbSymbolTableRecord
100
AcDbLayerTableRecord
  2
62
 70
     0
 62
     7
  6
Continuous
290
     1
370
    -3
390
F
  0
LAYER
  5
67
330
2
100
AcDbSymbolTableRecord
100
AcDbLayerTableRecord
  2
63
 70
     0
 62
     7
  6
Continuous
290
     1
370
    -3
390
F
  0
LAYER
  5
68
330
2
100
AcDbSymbolTableRecord
100
AcDbLayerTableRecord
  2
64
 70
     0
 62
     7
  6
Continuous
290
     1
370
    -3
390
F
  0
LAYER
  5
69
330
2
100
AcDbSymbolTableRecord
100
AcDbLayerTableRecord
  2
65
 70
     0
 62
     7
  6
Continuous
290
     1
370
    -3
390
F
  0
LAYER
  5
6A
330
2
100
AcDbSymbolTableRecord
100
AcDbLayerTableRecord
  2
66
 70
     0
 62
     7
  6
Continuous
290
     1
370
    -3
390
F
  0
LAYER
  5
6B
330
2
100
AcDbSymbolTableRecord
100
AcDbLayerTableRecord
  2
67
 70
     0
 62
     7
  6
Continuous
290
     1
370
    -3
390
F
  0
LAYER
  5
6C
330
2
100
AcDbSymbolTableRecord
100
AcDbLayerTableRecord
  2
68
 70
     0
 62
     7
  6
Continuous
290
     1
370
    -3
390
F
  0
LAYER
  5
6D
330
2
100
AcDbSymbolTableRecord
100
AcDbLayerTableRecord
  2
69
 70
     0
 62
     7
  6
Continuous
290
     1
370
    -3
390
F
  0
LAYER
  5
6E
330
2
100
AcDbSymbolTableRecord
100
AcDbLayerTableRecord
  2
70
 70
     0
 62
     7
  6
Continuous
290
     1
370
    -3
390
F
  0
LAYER
  5
6F
330
2
100
AcDbSymbolTableRecord
100
AcDbLayerTableRecord
  2
71
 70
     0
 62
     7
  6
Continuous
290
     1
370
    -3
390
F
  0
LAYER
  5
70
330
2
100
AcDbSymbolTableRecord
100
AcDbLayerTableRecord
  2
72
 70
     0
 62
     7
  6
Continuous
290
     1
370
    -3
390
F
  0
LAYER
  5
71
330
2
100
AcDbSymbolTableRecord
100
AcDbLayerTableRecord
  2
73
 70
     0
 62
     7
  6
Continuous
290
     1
370
    -3
390
F
  0
LAYER
  5
72
330
2
100
AcDbSymbolTableRecord
100
AcDbLayerTableRecord
  2
74
 70
     0
 62
     7
  6
Continuous
290
     1
370
    -3
390
F
  0
LAYER
  5
73
330
2
100
AcDbSymbolTableRecord
100
AcDbLayerTableRecord
  2
75
 70
     0
 62
     7
  6
Continuous
290
     1
370
    -3
390
F
  0
LAYER
  5
74
330
2
100
AcDbSymbolTableRecord
100
AcDbLayerTableRecord
  2
76
 70
     0
 62
     7
  6
Continuous
290
     1
370
    -3
390
F
  0
LAYER
  5
75
330
2
100
AcDbSymbolTableRecord
100
AcDbLayerTableRecord
  2
77
 70
     0
 62
     7
  6
Continuous
290
     1
370
    -3
390
F
  0
LAYER
  5
76
330
2
100
AcDbSymbolTableRecord
100
AcDbLayerTableRecord
  2
78
 70
     0
 62
     7
  6
Continuous
290
     1
370
    -3
390
F
  0
LAYER
  5
77
330
2
100
AcDbSymbolTableRecord
100
AcDbLayerTableRecord
  2
79
 70
     0
 62
     7
  6
Continuous
290
     1
370
    -3
390
F
  0
LAYER
  5
78
330
2
100
AcDbSymbolTableRecord
100
AcDbLayerTableRecord
  2
80
 70
     0
 62
     7
  6
Continuous
290
     1
370
    -3
390
F
  0
LAYER
  5
79
330
2
100
AcDbSymbolTableRecord
100
AcDbLayerTableRecord
  2
81
 70
     0
 62
     7
  6
Continuous
290
     1
370
    -3
390
F
  0
LAYER
  5
7A
330
2
100
AcDbSymbolTableRecord
100
AcDbLayerTableRecord
  2
82
 70
     0
 62
     7
  6
Continuous
290
     1
370
    -3
390
F
  0
LAYER
  5
7B
330
2
100
AcDbSymbolTableRecord
100
AcDbLayerTableRecord
  2
83
 70
     0
 62
     7
  6
Continuous
290
     1
370
    -3
390
F
  0
LAYER
  5
7C
330
2
100
AcDbSymbolTableRecord
100
AcDbLayerTableRecord
  2
84
 70
     0
 62
     7
  6
Continuous
290
     1
370
    -3
390
F
  0
LAYER
  5
7D
330
2
100
AcDbSymbolTableRecord
100
AcDbLayerTableRecord
  2
85
 70
     0
 62
     7
  6
Continuous
290
     1
370
    -3
390
F
  0
LAYER
  5
7E
330
2
100
AcDbSymbolTableRecord
100
AcDbLayerTableRecord
  2
86
 70
     0
 62
     7
  6
Continuous
290
     1
370
    -3
390
F
  0
LAYER
  5
7F
330
2
100
AcDbSymbolTableRecord
100
AcDbLayerTableRecord
  2
87
 70
     0
 62
     7
  6
Continuous
290
     1
370
    -3
390
F
  0
LAYER
  5
80
330
2
100
AcDbSymbolTableRecord
100
AcDbLayerTableRecord
  2
88
 70
     0
 62
     7
  6
Continuous
290
     1
370
    -3
390
F
  0
LAYER
  5
81
330
2
100
AcDbSymbolTableRecord
100
AcDbLayerTableRecord
  2
89
 70
     0
 62
     7
  6
Continuous
290
     1
370
    -3
390
F
  0
LAYER
  5
82
330
2
100
AcDbSymbolTableRecord
100
AcDbLayerTableRecord
  2
90
 70
     0
 62
     7
  6
Continuous
290
     1
370
    -3
390
F
  0
LAYER
  5
83
330
2
100
AcDbSymbolTableRecord
100
AcDbLayerTableRecord
  2
91
 70
     0
 62
     7
  6
Continuous
290
     1
370
    -3
390
F
  0
LAYER
  5
84
330
2
100
AcDbSymbolTableRecord
100
AcDbLayerTableRecord
  2
92
 70
     0
 62
     7
  6
Continuous
290
     1
370
    -3
390
F
  0
LAYER
  5
85
330
2
100
AcDbSymbolTableRecord
100
AcDbLayerTableRecord
  2
93
 70
     0
 62
     7
  6
Continuous
290
     1
370
    -3
390
F
  0
LAYER
  5
86
330
2
100
AcDbSymbolTableRecord
100
AcDbLayerTableRecord
  2
94
 70
     0
 62
     7
  6
Continuous
290
     1
370
    -3
390
F
  0
LAYER
  5
87
330
2
100
AcDbSymbolTableRecord
100
AcDbLayerTableRecord
  2
95
 70
     0
 62
     7
  6
Continuous
290
     1
370
    -3
390
F
  0
LAYER
  5
88
330
2
100
AcDbSymbolTableRecord
100
AcDbLayerTableRecord
  2
96
 70
     0
 62
     7
  6
Continuous
290
     1
370
    -3
390
F
  0
LAYER
  5
89
330
2
100
AcDbSymbolTableRecord
100
AcDbLayerTableRecord
  2
97
 70
     0
 62
     7
  6
Continuous
290
     1
370
    -3
390
F
  0
LAYER
  5
8A
330
2
100
AcDbSymbolTableRecord
100
AcDbLayerTableRecord
  2
98
 70
     0
 62
     7
  6
Continuous
290
     1
370
    -3
390
F
  0
LAYER
  5
8B
330
2
100
AcDbSymbolTableRecord
100
AcDbLayerTableRecord
  2
99
 70
     0
 62
     7
  6
Continuous
290
     1
370
    -3
390
F
  0
LAYER
  5
8C
330
2
100
AcDbSymbolTableRecord
100
AcDbLayerTableRecord
  2
100
 70
     0
 62
     7
  6
Continuous
290
     1
370
    -3
390
F
  0
LAYER
  5
8D
330
2
100
AcDbSymbolTableRecord
100
AcDbLayerTableRecord
  2
101
 70
     0
 62
     7
  6
Continuous
290
     1
370
    -3
390
F
  0
LAYER
  5
8E
330
2
100
AcDbSymbolTableRecord
100
AcDbLayerTableRecord
  2
102
 70
     0
 62
     7
  6
Continuous
290
     1
370
    -3
390
F
  0
LAYER
  5
8F
330
2
100
AcDbSymbolTableRecord
100
AcDbLayerTableRecord
  2
103
 70
     0
 62
     7
  6
Continuous
290
     1
370
    -3
390
F
  0
LAYER
  5
90
330
2
100
AcDbSymbolTableRecord
100
AcDbLayerTableRecord
  2
104
 70
     0
 62
     7
  6
Continuous
290
     1
370
    -3
390
F
  0
LAYER
  5
91
330
2
100
AcDbSymbolTableRecord
100
AcDbLayerTableRecord
  2
105
 70
     0
 62
     7
  6
Continuous
290
     1
370
    -3
390
F
  0
LAYER
  5
92
330
2
100
AcDbSymbolTableRecord
100
AcDbLayerTableRecord
  2
106
 70
     0
 62
     7
  6
Continuous
290
     1
370
    -3
390
F
  0
LAYER
  5
93
330
2
100
AcDbSymbolTableRecord
100
AcDbLayerTableRecord
  2
107
 70
     0
 62
     7
  6
Continuous
290
     1
370
    -3
390
F
  0
LAYER
  5
94
330
2
100
AcDbSymbolTableRecord
100
AcDbLayerTableRecord
  2
108
 70
     0
 62
     7
  6
Continuous
290
     1
370
    -3
390
F
  0
LAYER
  5
95
330
2
100
AcDbSymbolTableRecord
100
AcDbLayerTableRecord
  2
109
 70
     0
 62
     7
  6
Continuous
290
     1
370
    -3
390
F
  0
LAYER
  5
96
330
2
100
AcDbSymbolTableRecord
100
AcDbLayerTableRecord
  2
110
 70
     0
 62
     7
  6
Continuous
290
     1
370
    -3
390
F
  0
LAYER
  5
97
330
2
100
AcDbSymbolTableRecord
100
AcDbLayerTableRecord
  2
111
 70
     0
 62
     7
  6
Continuous
290
     1
370
    -3
390
F
  0
LAYER
  5
98
330
2
100
AcDbSymbolTableRecord
100
AcDbLayerTableRecord
  2
112
 70
     0
 62
     7
  6
Continuous
290
     1
370
    -3
390
F
  0
LAYER
  5
99
330
2
100
AcDbSymbolTableRecord
100
AcDbLayerTableRecord
  2
113
 70
     0
 62
     7
  6
Continuous
290
     1
370
    -3
390
F
  0
LAYER
  5
9A
330
2
100
AcDbSymbolTableRecord
100
AcDbLayerTableRecord
  2
114
 70
     0
 62
     7
  6
Continuous
290
     1
370
    -3
390
F
  0
LAYER
  5
9B
330
2
100
AcDbSymbolTableRecord
100
AcDbLayerTableRecord
  2
115
 70
     0
 62
     7
  6
Continuous
290
     1
370
    -3
390
F
  0
LAYER
  5
9C
330
2
100
AcDbSymbolTableRecord
100
AcDbLayerTableRecord
  2
116
 70
     0
 62
     7
  6
Continuous
290
     1
370
    -3
390
F
  0
LAYER
  5
9D
330
2
100
AcDbSymbolTableRecord
100
AcDbLayerTableRecord
  2
117
 70
     0
 62
     7
  6
Continuous
290
     1
370
    -3
390
F
  0
LAYER
  5
9E
330
2
100
AcDbSymbolTableRecord
100
AcDbLayerTableRecord
  2
118
 70
     0
 62
     7
  6
Continuous
290
     1
370
    -3
390
F
  0
LAYER
  5
9F
330
2
100
AcDbSymbolTableRecord
100
AcDbLayerTableRecord
  2
119
 70
     0
 62
     7
  6
Continuous
290
     1
370
    -3
390
F
  0
LAYER
  5
A0
330
2
100
AcDbSymbolTableRecord
100
AcDbLayerTableRecord
  2
120
 70
     0
 62
     7
  6
Continuous
290
     1
370
    -3
390
F
  0
LAYER
  5
A1
330
2
100
AcDbSymbolTableRecord
100
AcDbLayerTableRecord
  2
121
 70
     0
 62
     7
  6
Continuous
290
     1
370
    -3
390
F
  0
LAYER
  5
A2
330
2
100
AcDbSymbolTableRecord
100
AcDbLayerTableRecord
  2
122
 70
     0
 62
     7
  6
Continuous
290
     1
370
    -3
390
F
  0
LAYER
  5
A3
330
2
100
AcDbSymbolTableRecord
100
AcDbLayerTableRecord
  2
123
 70
     0
 62
     7
  6
Continuous
290
     1
370
    -3
390
F
  0
LAYER
  5
A4
330
2
100
AcDbSymbolTableRecord
100
AcDbLayerTableRecord
  2
124
 70
     0
 62
     7
  6
Continuous
290
     1
370
    -3
390
F
  0
LAYER
  5
A5
330
2
100
AcDbSymbolTableRecord
100
AcDbLayerTableRecord
  2
125
 70
     0
 62
     7
  6
Continuous
290
     1
370
    -3
390
F
  0
LAYER
  5
A6
330
2
100
AcDbSymbolTableRecord
100
AcDbLayerTableRecord
  2
126
 70
     0
 62
     7
  6
Continuous
290
     1
370
    -3
390
F
  0
LAYER
  5
A7
330
2
100
AcDbSymbolTableRecord
100
AcDbLayerTableRecord
  2
127
 70
     0
 62
     7
  6
Continuous
290
     1
370
    -3
390
F
  0
LAYER
  5
A8
330
2
100
AcDbSymbolTableRecord
100
AcDbLayerTableRecord
  2
128
 70
     0
 62
     7
  6
Continuous
290
     1
370
    -3
390
F
  0
ENDTAB
  0
TABLE
  2
STYLE
  5
3
330
0
100
AcDbSymbolTable
 70
    10
  0
STYLE
  5
11
330
3
100
AcDbSymbolTableRecord
100
AcDbTextStyleTableRecord
  2
Standard
 70
     0
 40
0.0
 41
1.0
 50
0.0
 71
     0
 42
2.5
  3
txt
  4
extfont.shx
  0
STYLE
  5
B4
330
3
100
AcDbSymbolTableRecord
100
AcDbTextStyleTableRecord
  2
KANJI0
 70
     0
 40
4.0
 41
0.75
 50
0.0
 71
     0
 42
4.0
  3
txt.shx
  4
extfont.shx
  0
STYLE
  5
DD
330
3
100
AcDbSymbolTableRecord
100
AcDbTextStyleTableRecord
  2
KANJI1
 70
     0
 40
15.0
 41
0.833333333
 50
15.0
 71
     0
 42
15.0
  3
txt.shx
  4
extfont.shx
  0
STYLE
  5
E0
330
3
100
AcDbSymbolTableRecord
100
AcDbTextStyleTableRecord
  2
KANJI2
 70
     0
 40
15.0
 41
0.666666667
 50
0.0
 71
     0
 42
15.0
  3
txt.shx
  4
extfont.shx
  0
STYLE
  5
1EA
330
3
100
AcDbSymbolTableRecord
100
AcDbTextStyleTableRecord
  2
KANJI3
 70
     0
 40
3.4
 41
0.75
 50
0.0
 71
     0
 42
3.4
  3
txt.shx
  4
extfont.shx
  0
STYLE
  5
20C
330
3
100
AcDbSymbolTableRecord
100
AcDbTextStyleTableRecord
  2
KANJI4
 70
     0
 40
15.0
 41
0.666666667
 50
0.0
 71
     0
 42
15.0
  3
txt.shx
  4
extfont.shx
  0
STYLE
  5
34D
330
3
100
AcDbSymbolTableRecord
100
AcDbTextStyleTableRecord
  2
KANJI5
 70
     0
 40
9.0
 41
0.933333333
 50
0.0
 71
     0
 42
9.0
  3
txt.shx
  4
extfont.shx
  0
STYLE
  5
355
330
3
100
AcDbSymbolTableRecord
100
AcDbTextStyleTableRecord
  2
KANJI6
 70
     0
 40
5.0
 41
1.0
 50
0.0
 71
     0
 42
5.0
  3
txt.shx
  4
extfont.shx
  0
STYLE
  5
361
330
3
100
AcDbSymbolTableRecord
100
AcDbTextStyleTableRecord
  2
KANJI7
 70
     0
 40
8.04
 41
0.75
 50
0.0
 71
     0
 42
8.04
  3
txt.shx
  4
extfont.shx
  0
STYLE
  5
368
330
3
100
AcDbSymbolTableRecord
100
AcDbTextStyleTableRecord
  2
KANJI8
 70
     0
 40
15.0
 41
0.66666
 50
10.0
 71
     0
 42
15.0
  3
txt.shx
  4
extfont.shx
  0
ENDTAB
  0
TABLE
  2
VIEW
  5
6
330
0
100
AcDbSymbolTable
 70
     0
  0
ENDTAB
  0
TABLE
  2
UCS
  5
7
330
0
100
AcDbSymbolTable
 70
     0
  0
ENDTAB
  0
TABLE
  2
APPID
  5
9
330
0
100
AcDbSymbolTable
 70
     1
  0
APPID
  5
12
330
9
100
AcDbSymbolTableRecord
100
AcDbRegAppTableRecord
  2
ACAD
 70
     0
  0
ENDTAB
  0
TABLE
  2
DIMSTYLE
  5
A
330
0
100
AcDbSymbolTable
 70
     1
100
AcDbDimStyleTable
 71
     0
  0
DIMSTYLE
105
27
330
A
100
AcDbSymbolTableRecord
100
AcDbDimStyleTableRecord
  2
ISO-25
 70
     0
  3

  4

 40
1.0
 41
2.5
 42
0.625
 43
3.75
 44
1.25
 45
0.0
 46
0.0
 47
0.0
 48
0.0
 71
     0
 72
     0
 73
     0
 74
     0
 75
     0
 76
     0
 77
     1
 78
     8
 79
     0
140
2.5
141
2.5
142
0.0
143
0.039370079
144
1.0
145
0.0
146
1.0
147
0.625
148
0.0
170
     0
171
     3
172
     1
173
     0
174
     0
175
     0
176
     0
177
     0
178
     0
179
     0
270
     2
271
     2
272
     2
273
     2
274
     3
275
     0
276
     0
277
     2
278
    46
279
     0
280
     0
281
     0
282
     0
283
     1
284
     8
285
     0
286
     0
288
     0
289
     0
340
11
341
0
342
0
343
0
344
0
371
    -2
372
    -2
  0
ENDTAB
  0
TABLE
  2
BLOCK_RECORD
  5
1
330
0
100
AcDbSymbolTable
 70
     3
  0
BLOCK_RECORD
  5
1F
330
1
100
AcDbSymbolTableRecord
100
AcDbBlockTableRecord
  2
*Model_Space
340
22
  0
BLOCK_RECORD
  5
1B
330
1
100
AcDbSymbolTableRecord
100
AcDbBlockTableRecord
  2
*Paper_Space
340
1E
  0
BLOCK_RECORD
  5
23
330
1
100
AcDbSymbolTableRecord
100
AcDbBlockTableRecord
  2
*Paper_Space0
340
26
  0
ENDTAB
  0
ENDSEC
  0
SECTION
  2
BLOCKS
  0
BLOCK
  5
1C
330
1B
100
AcDbEntity
 67
     1
  8
0
100
AcDbBlockBegin
  2
*Paper_Space
 70
     0
 10
0.0
 20
0.0
 30
0.0
  3
*Paper_Space
  1

  0
ENDBLK
  5
1D
330
1B
100
AcDbEntity
  8
0
100
AcDbBlockEnd
  0
BLOCK
  5
20
330
1F
100
AcDbEntity
  8
0
100
AcDbBlockBegin
  2
*Model_Space
 70
     0
 10
0.0
 20
0.0
 30
0.0
  3
*Model_Space
  1

  0
ENDBLK
  5
21
330
1F
100
AcDbEntity
  8
0
100
AcDbBlockEnd
  0
BLOCK
  5
24
330
23
100
AcDbEntity
 67
     1
  8
0
100
AcDbBlockBegin
  2
*Paper_Space0
 70
     0
 10
0.0
 20
0.0
 30
0.0
  3
*Paper_Space0
  1

  0
ENDBLK
  5
25
330
23
100
AcDbEntity
  8
0
100
AcDbBlockEnd
  0
ENDSEC
  0
SECTION
  2
ENTITIES
  0
LINE
  5
A9
330
1F
100
AcDbEntity
  8
2
  6
Continuous
 62
     2
100
AcDbLine
 10
755.88
 20
617.61
 30
0.0
 11
505.88
 21
617.61
 31
0.0
  0
LINE
  5
AA
330
1F
100
AcDbEntity
  8
3
  6
Continuous
 62
     1
100
AcDbLine
 10
539.454443697
 20
529.861142838
 30
0.0
 11
534.178852279
 21
524.530276569
 31
0.0
  0
LINE
  5
AB
330
1F
100
AcDbEntity
  8
3
  6
Continuous
 62
     1
100
AcDbLine
 10
539.454443697
 20
529.861142838
 30
0.0
 11
537.551080644
 21
522.606681515
 31
0.0
  0
LINE
  5
AC
330
1F
100
AcDbEntity
  8
3
  6
Continuous
 62
     1
100
AcDbLine
 10
539.454443697
 20
529.861142838
 30
0.0
 11
503.004443697
 21
465.961142838
 31
0.0
  0
LINE
  5
AD
330
1F
100
AcDbEntity
  8
2
  6
Continuous
 62
     2
100
AcDbLine
 10
755.88
 20
524.61
 30
0.0
 11
505.88
 21
524.61
 31
0.0
  0
LINE
  5
AE
330
1F
100
AcDbEntity
  8
2
  6
Continuous
 62
     2
100
AcDbLine
 10
755.88
 20
617.61
 30
0.0
 11
755.88
 21
524.61
 31
0.0
  0
LINE
  5
AF
330
1F
100
AcDbEntity
  8
2
  6
Continuous
 62
     2
100
AcDbLine
 10
865.38
 20
617.61
 30
0.0
 11
1065.38
 21
617.61
 31
0.0
  0
LINE
  5
B0
330
1F
100
AcDbEntity
  8
2
  6
Continuous
 62
     2
100
AcDbLine
 10
865.38
 20
617.61
 30
0.0
 11
865.38
 21
524.61
 31
0.0
  0
LINE
  5
B1
330
1F
100
AcDbEntity
  8
2
  6
Continuous
 62
     2
100
AcDbLine
 10
1065.38
 20
617.61
 30
0.0
 11
1065.38
 21
524.61
 31
0.0
  0
LINE
  5
B2
330
1F
100
AcDbEntity
  8
2
  6
Continuous
 62
     2
100
AcDbLine
 10
865.38
 20
524.61
 30
0.0
 11
1065.38
 21
524.61
 31
0.0
  0
TEXT
  5
B3
330
1F
100
AcDbEntity
  8
2
  6
Continuous
 62
     1
100
AcDbText
 10
1027.68
 20
600.01
 30
0.0
 40
4.0
  1
ＰＯＷＥＲ
 41
0.75
  7
KANJI0
100
AcDbText
  0
TEXT
  5
B5
330
1F
100
AcDbEntity
  8
2
  6
Continuous
 62
     1
100
AcDbText
 10
1027.68
 20
593.51
 30
0.0
 40
4.0
  1
ＡＬＡＲＭ
 41
0.75
  7
KANJI0
100
AcDbText
  0
TEXT
  5
B6
330
1F
100
AcDbEntity
  8
2
  6
Continuous
 62
     1
100
AcDbText
 10
1027.68
 20
586.01
 30
0.0
 40
4.0
  1
ＯＶＥＲ　ＬＯＡＤ
 41
0.75
  7
KANJI0
100
AcDbText
  0
CIRCLE
  5
B7
330
1F
100
AcDbEntity
  8
2
  6
Continuous
 62
     1
100
AcDbCircle
 10
1022.28
 20
602.01
 30
0.0
 40
2.0
  0
CIRCLE
  5
B8
330
1F
100
AcDbEntity
  8
2
  6
Continuous
 62
     1
100
AcDbCircle
 10
1022.28
 20
602.01
 30
0.0
 40
3.0
  0
CIRCLE
  5
B9
330
1F
100
AcDbEntity
  8
2
  6
Continuous
 62
     1
100
AcDbCircle
 10
1022.18
 20
602.01
 30
0.0
 40
2.5
  0
CIRCLE
  5
BA
330
1F
100
AcDbEntity
  8
2
  6
Continuous
 62
     1
100
AcDbCircle
 10
1022.28
 20
595.01
 30
0.0
 40
2.0
  0
CIRCLE
  5
BB
330
1F
100
AcDbEntity
  8
2
  6
Continuous
 62
     1
100
AcDbCircle
 10
1022.28
 20
595.01
 30
0.0
 40
3.0
  0
CIRCLE
  5
BC
330
1F
100
AcDbEntity
  8
2
  6
Continuous
 62
     1
100
AcDbCircle
 10
1022.18
 20
595.01
 30
0.0
 40
2.5
  0
CIRCLE
  5
BD
330
1F
100
AcDbEntity
  8
2
  6
Continuous
 62
     1
100
AcDbCircle
 10
1022.28
 20
588.01
 30
0.0
 40
2.0
  0
CIRCLE
  5
BE
330
1F
100
AcDbEntity
  8
2
  6
Continuous
 62
     1
100
AcDbCircle
 10
1022.28
 20
588.01
 30
0.0
 40
3.0
  0
CIRCLE
  5
BF
330
1F
100
AcDbEntity
  8
2
  6
Continuous
 62
     1
100
AcDbCircle
 10
1022.18
 20
588.01
 30
0.0
 40
2.5
  0
LINE
  5
C0
330
1F
100
AcDbEntity
  8
3
  6
Continuous
 62
     1
100
AcDbLine
 10
1026.11
 20
608.71
 30
0.0
 11
1030.447449265
 21
614.828540175
 31
0.0
  0
LINE
  5
C1
330
1F
100
AcDbEntity
  8
3
  6
Continuous
 62
     1
100
AcDbLine
 10
1026.11
 20
608.71
 30
0.0
 11
1026.807071164
 21
616.177535858
 31
0.0
  0
CIRCLE
  5
C2
330
1F
100
AcDbEntity
  8
2
  6
Continuous
 62
     1
100
AcDbCircle
 10
543.38
 20
608.61
 30
0.0
 40
2.0
  0
CIRCLE
  5
C3
330
1F
100
AcDbEntity
  8
2
  6
Continuous
 62
     1
100
AcDbCircle
 10
630.88
 20
608.61
 30
0.0
 40
2.0
  0
CIRCLE
  5
C4
330
1F
100
AcDbEntity
  8
2
  6
Continuous
 62
     1
100
AcDbCircle
 10
718.38
 20
608.61
 30
0.0
 40
2.0
  0
CIRCLE
  5
C5
330
1F
100
AcDbEntity
  8
2
  6
Continuous
 62
     1
100
AcDbCircle
 10
718.38
 20
533.61
 30
0.0
 40
2.0
  0
CIRCLE
  5
C6
330
1F
100
AcDbEntity
  8
2
  6
Continuous
 62
     1
100
AcDbCircle
 10
630.88
 20
533.61
 30
0.0
 40
2.0
  0
CIRCLE
  5
C7
330
1F
100
AcDbEntity
  8
2
  6
Continuous
 62
     1
100
AcDbCircle
 10
543.38
 20
533.61
 30
0.0
 40
2.0
  0
LINE
  5
C8
330
1F
100
AcDbEntity
  8
3
  6
Continuous
 62
     1
100
AcDbLine
 10
538.38
 20
608.61
 30
0.0
 11
548.38
 21
608.61
 31
0.0
  0
LINE
  5
C9
330
1F
100
AcDbEntity
  8
3
  6
Continuous
 62
     1
100
AcDbLine
 10
543.38
 20
603.61
 30
0.0
 11
543.38
 21
613.61
 31
0.0
  0
LINE
  5
CA
330
1F
100
AcDbEntity
  8
3
  6
Continuous
 62
     1
100
AcDbLine
 10
625.88
 20
608.61
 30
0.0
 11
635.88
 21
608.61
 31
0.0
  0
LINE
  5
CB
330
1F
100
AcDbEntity
  8
3
  6
Continuous
 62
     1
100
AcDbLine
 10
630.88
 20
603.61
 30
0.0
 11
630.88
 21
613.61
 31
0.0
  0
LINE
  5
CC
330
1F
100
AcDbEntity
  8
3
  6
Continuous
 62
     1
100
AcDbLine
 10
713.38
 20
608.61
 30
0.0
 11
723.38
 21
608.61
 31
0.0
  0
LINE
  5
CD
330
1F
100
AcDbEntity
  8
3
  6
Continuous
 62
     1
100
AcDbLine
 10
718.38
 20
603.61
 30
0.0
 11
718.38
 21
613.61
 31
0.0
  0
LINE
  5
CE
330
1F
100
AcDbEntity
  8
3
  6
Continuous
 62
     1
100
AcDbLine
 10
713.38
 20
533.61
 30
0.0
 11
723.38
 21
533.61
 31
0.0
  0
LINE
  5
CF
330
1F
100
AcDbEntity
  8
3
  6
Continuous
 62
     1
100
AcDbLine
 10
718.38
 20
528.61
 30
0.0
 11
718.38
 21
538.61
 31
0.0
  0
LINE
  5
D0
330
1F
100
AcDbEntity
  8
3
  6
Continuous
 62
     1
100
AcDbLine
 10
625.88
 20
533.61
 30
0.0
 11
635.88
 21
533.61
 31
0.0
  0
LINE
  5
D1
330
1F
100
AcDbEntity
  8
3
  6
Continuous
 62
     1
100
AcDbLine
 10
630.88
 20
528.61
 30
0.0
 11
630.88
 21
538.61
 31
0.0
  0
LINE
  5
D2
330
1F
100
AcDbEntity
  8
3
  6
Continuous
 62
     1
100
AcDbLine
 10
538.38
 20
533.61
 30
0.0
 11
548.38
 21
533.61
 31
0.0
  0
LINE
  5
D3
330
1F
100
AcDbEntity
  8
3
  6
Continuous
 62
     1
100
AcDbLine
 10
543.38
 20
528.61
 30
0.0
 11
543.38
 21
538.61
 31
0.0
  0
TEXT
  5
D4
330
1F
100
AcDbEntity
  8
2
  6
Continuous
 62
     1
100
AcDbText
 10
885.5
 20
599.76
 30
0.0
 40
4.0
  1
ＰＯＷＥＲ
 41
0.75
  7
KANJI0
100
AcDbText
  0
LWPOLYLINE
  5
D6
330
1F
100
AcDbEntity
  8
0
  6
Continuous
 62
     1
100
AcDbPolyline
 90
     4
 70
   129
 43
0.0
 10
885.38
 20
572.41
 10
900.58
 20
572.41
 10
900.58
 20
597.61
 10
885.38
 20
597.61
  0
LWPOLYLINE
  5
D8
330
1F
100
AcDbEntity
  8
0
  6
Continuous
 62
     1
100
AcDbPolyline
 90
     4
 70
   129
 43
0.0
 10
887.98
 20
576.01
 10
897.98
 20
576.01
 10
897.98
 20
594.01
 10
887.98
 20
594.01
  0
CIRCLE
  5
D9
330
1F
100
AcDbEntity
  8
0
  6
Continuous
 62
     1
100
AcDbCircle
 10
892.98
 20
589.51
 30
0.0
 40
0.5
  0
LINE
  5
DB
330
1F
100
AcDbEntity
  8
0
  6
LTYPE1
 62
     1
100
AcDbLine
 10
887.98
 20
585.01
 30
0.0
 11
897.98
 21
585.01
 31
0.0
  0
TEXT
  5
DC
330
1F
100
AcDbEntity
  8
2
  6
Continuous
 62
     1
100
AcDbText
 10
940.13
 20
551.95
 30
0.0
 40
15.0
  1
通風口
 41
0.833333333
 51
15.0
  7
KANJI1
100
AcDbText
  0
LINE
  5
DE
330
1F
100
AcDbEntity
  8
3
  6
Continuous
 62
     1
100
AcDbLine
 10
503.004443697
 20
465.961142838
 30
0.0
 11
431.354443697
 21
465.961142838
 31
0.0
  0
TEXT
  5
DF
330
1F
100
AcDbEntity
  8
3
  6
Continuous
 62
     1
100
AcDbText
 10
426.504443697
 20
468.561142838
 30
0.0
 40
15.0
  1
６－Ｍ４×Ｄ７
 41
0.666666667
  7
KANJI2
100
AcDbText
  0
TEXT
  5
E1
330
1F
100
AcDbEntity
  8
3
  6
Continuous
 62
     1
100
AcDbText
 10
431.507044449
 20
447.683110485
 30
0.0
 40
15.0
  1
取付用ネジ穴
 41
0.666666667
  7
KANJI2
100
AcDbText
  0
TEXT
  5
E2
330
1F
100
AcDbEntity
  8
3
  6
Continuous
 62
     1
100
AcDbText
 10
1043.47
 20
663.9
 30
0.0
 40
15.0
  1
表示ランプ
 41
0.666666667
  7
KANJI2
100
AcDbText
  0
LINE
  5
E3
330
1F
100
AcDbEntity
  8
3
  6
Continuous
 62
     1
100
AcDbLine
 10
1045.87
 20
661.3
 30
0.0
 11
1102.52
 21
661.3
 31
0.0
  0
LINE
  5
E4
330
1F
100
AcDbEntity
  8
3
  6
Continuous
 62
     1
100
AcDbLine
 10
1026.11
 20
608.71
 30
0.0
 11
1045.597998501
 21
661.3
 31
0.0
  0
POINT
  5
E5
330
1F
100
AcDbEntity
  8
3
  6
Continuous
 62
     1
100
AcDbPoint
 10
873.927614848
 20
669.6
 30
0.0
  0
TEXT
  5
E6
330
1F
100
AcDbEntity
  8
3
  6
Continuous
 62
     1
100
AcDbText
 10
825.777614848
 20
672.75
 30
0.0
 40
15.0
  1
起動ＳＷ
 41
0.666666667
  7
KANJI2
100
AcDbText
  0
LINE
  5
E7
330
1F
100
AcDbEntity
  8
3
  6
Continuous
 62
     1
100
AcDbLine
 10
873.927614848
 20
669.6
 30
0.0
 11
822.877614848
 21
669.6
 31
0.0
  0
LINE
  5
E8
330
1F
100
AcDbEntity
  8
2
  6
Continuous
 62
     2
100
AcDbLine
 10
505.88
 20
617.61
 30
0.0
 11
505.88
 21
524.61
 31
0.0
  0
ARC
  5
E9
330
1F
100
AcDbEntity
  8
2
  6
Continuous
 62
     1
100
AcDbCircle
 10
505.08
 20
532.46
 30
0.0
 40
0.8
100
AcDbArc
 50
270.0
 51
0.0
  0
POINT
  5
EA
330
1F
100
AcDbEntity
  8
2
  6
Continuous
 62
     1
100
AcDbPoint
 10
505.08
 20
531.66
 30
0.0
  0
ARC
  5
EB
330
1F
100
AcDbEntity
  8
2
  6
Continuous
 62
     1
100
AcDbCircle
 10
505.080000001
 20
532.46
 30
0.0
 40
0.8
100
AcDbArc
 50
180.0
 51
269.999999964
  0
ARC
  5
EC
330
1F
100
AcDbEntity
  8
2
  6
Continuous
 62
     1
100
AcDbCircle
 10
503.28
 20
542.454061623
 30
0.0
 40
0.8
100
AcDbArc
 50
180.0
 51
220.364536573
  0
LINE
  5
ED
330
1F
100
AcDbEntity
  8
2
  6
Continuous
 62
     1
100
AcDbLine
 10
501.070448546
 20
540.935942887
 30
0.0
 11
503.2005
 21
538.43
 31
0.0
  0
ARC
  5
EE
330
1F
100
AcDbEntity
  8
2
  6
Continuous
 62
     1
100
AcDbCircle
 10
501.68
 20
541.454061623
 30
0.0
 40
0.8
100
AcDbArc
 50
180.0
 51
220.364536573
  0
LWPOLYLINE
  5
F0
330
1F
100
AcDbEntity
  8
2
  6
Continuous
 62
     1
100
AcDbPolyline
 90
     4
 70
   129
 43
0.0
 10
504.26
 20
610.91
 10
504.26
 20
602.91
 10
503.76
 20
602.91
 10
503.76
 20
610.91
  0
LINE
  5
F1
330
1F
100
AcDbEntity
  8
2
  6
Continuous
 62
     1
100
AcDbLine
 10
503.06
 20
603.91
 30
0.0
 11
503.76
 21
603.91
 31
0.0
  0
LWPOLYLINE
  5
F3
330
1F
100
AcDbEntity
  8
2
  6
Continuous
 62
     1
100
AcDbPolyline
 90
     3
 70
   128
 43
0.0
 10
503.76
 20
609.91
 10
503.06
 20
609.91
 10
503.06
 20
603.91
  0
LINE
  5
F4
330
1F
100
AcDbEntity
  8
2
  6
Continuous
 62
     1
100
AcDbLine
 10
503.76
 20
606.51
 30
0.0
 11
503.06
 21
607.31
 31
0.0
  0
ARC
  5
F5
330
1F
100
AcDbEntity
  8
2
  6
Continuous
 62
     1
100
AcDbCircle
 10
503.06
 20
607.91
 30
0.0
 40
2.0
100
AcDbArc
 50
90.0
 51
180.0
  0
ARC
  5
F6
330
1F
100
AcDbEntity
  8
2
  6
Continuous
 62
     1
100
AcDbCircle
 10
503.06
 20
605.91
 30
0.0
 40
2.0
100
AcDbArc
 50
180.0
 51
270.0
  0
LINE
  5
F7
330
1F
100
AcDbEntity
  8
2
  6
Continuous
 62
     1
100
AcDbLine
 10
501.06
 20
605.91
 30
0.0
 11
501.06
 21
607.91
 31
0.0
  0
LINE
  5
F8
330
1F
100
AcDbEntity
  8
2
  6
Continuous
 62
     1
100
AcDbLine
 10
501.06
 20
606.91
 30
0.0
 11
502.26
 21
608.11
 31
0.0
  0
LINE
  5
F9
330
1F
100
AcDbEntity
  8
2
  6
Continuous
 62
     1
100
AcDbLine
 10
501.06
 20
606.91
 30
0.0
 11
502.26
 21
605.71
 31
0.0
  0
LINE
  5
FA
330
1F
100
AcDbEntity
  8
2
  6
Continuous
 62
     1
100
AcDbLine
 10
502.48
 20
603.06
 30
0.0
 11
502.48
 21
604.06
 31
0.0
  0
ARC
  5
FB
330
1F
100
AcDbEntity
  8
2
  6
Continuous
 62
     1
100
AcDbCircle
 10
505.08
 20
609.86
 30
0.0
 40
0.8
100
AcDbArc
 50
0.0
 51
90.0
  0
POINT
  5
FC
330
1F
100
AcDbEntity
  8
2
  6
Continuous
 62
     1
100
AcDbPoint
 10
505.08
 20
610.66
 30
0.0
  0
LINE
  5
FD
330
1F
100
AcDbEntity
  8
2
  6
Continuous
 62
     1
100
AcDbLine
 10
504.28
 20
605.16
 30
0.0
 11
504.28
 21
609.86
 31
0.0
  0
ARC
  5
FE
330
1F
100
AcDbEntity
  8
2
  6
Continuous
 62
     1
100
AcDbCircle
 10
505.08
 20
609.86
 30
0.0
 40
0.8
100
AcDbArc
 50
90.0
 51
180.0
  0
LINE
  5
FF
330
1F
100
AcDbEntity
  8
2
  6
Continuous
 62
     1
100
AcDbLine
 10
505.689551454
 20
603.935942887
 30
0.0
 11
502.670448546
 21
600.384057113
 31
0.0
  0
ARC
  5
100
330
1F
100
AcDbEntity
  8
2
  6
Continuous
 62
     1
100
AcDbCircle
 10
503.28
 20
599.865938377
 30
0.0
 40
0.8
100
AcDbArc
 50
139.635463427
 51
180.0
  0
LINE
  5
101
330
1F
100
AcDbEntity
  8
2
  6
Continuous
 62
     1
100
AcDbLine
 10
501.070448546
 20
601.384057113
 30
0.0
 11
503.2005
 21
603.89
 31
0.0
  0
ARC
  5
102
330
1F
100
AcDbEntity
  8
2
  6
Continuous
 62
     1
100
AcDbCircle
 10
501.68
 20
600.865938377
 30
0.0
 40
0.8
100
AcDbArc
 50
139.635463427
 51
180.0
  0
LWPOLYLINE
  5
104
330
1F
100
AcDbEntity
  8
2
  6
Continuous
 62
     1
100
AcDbPolyline
 90
     4
 70
   129
 43
0.0
 10
504.26
 20
531.41
 10
504.26
 20
539.41
 10
503.76
 20
539.41
 10
503.76
 20
531.41
  0
LINE
  5
105
330
1F
100
AcDbEntity
  8
2
  6
Continuous
 62
     1
100
AcDbLine
 10
503.06
 20
538.41
 30
0.0
 11
503.76
 21
538.41
 31
0.0
  0
LWPOLYLINE
  5
107
330
1F
100
AcDbEntity
  8
2
  6
Continuous
 62
     1
100
AcDbPolyline
 90
     3
 70
   128
 43
0.0
 10
503.76
 20
532.41
 10
503.06
 20
532.41
 10
503.06
 20
538.41
  0
LINE
  5
108
330
1F
100
AcDbEntity
  8
2
  6
Continuous
 62
     1
100
AcDbLine
 10
503.76
 20
535.81
 30
0.0
 11
503.06
 21
535.01
 31
0.0
  0
ARC
  5
109
330
1F
100
AcDbEntity
  8
2
  6
Continuous
 62
     1
100
AcDbCircle
 10
503.06
 20
534.41
 30
0.0
 40
2.0
100
AcDbArc
 50
180.0
 51
270.0
  0
ARC
  5
10A
330
1F
100
AcDbEntity
  8
2
  6
Continuous
 62
     1
100
AcDbCircle
 10
503.06
 20
536.41
 30
0.0
 40
2.0
100
AcDbArc
 50
90.0
 51
180.0
  0
LINE
  5
10B
330
1F
100
AcDbEntity
  8
2
  6
Continuous
 62
     1
100
AcDbLine
 10
501.06
 20
536.41
 30
0.0
 11
501.06
 21
534.41
 31
0.0
  0
LINE
  5
10C
330
1F
100
AcDbEntity
  8
2
  6
Continuous
 62
     1
100
AcDbLine
 10
501.06
 20
535.41
 30
0.0
 11
502.26
 21
534.21
 31
0.0
  0
LINE
  5
10D
330
1F
100
AcDbEntity
  8
2
  6
Continuous
 62
     1
100
AcDbLine
 10
501.06
 20
535.41
 30
0.0
 11
502.26
 21
536.61
 31
0.0
  0
LINE
  5
10E
330
1F
100
AcDbEntity
  8
2
  6
Continuous
 62
     1
100
AcDbLine
 10
502.48
 20
539.26
 30
0.0
 11
502.48
 21
538.26
 31
0.0
  0
LINE
  5
10F
330
1F
100
AcDbEntity
  8
2
  6
Continuous
 62
     1
100
AcDbLine
 10
504.28
 20
537.16
 30
0.0
 11
504.28
 21
532.46
 31
0.0
  0
LINE
  5
110
330
1F
100
AcDbEntity
  8
2
  6
Continuous
 62
     1
100
AcDbLine
 10
505.88
 20
538.16
 30
0.0
 11
502.670448546
 21
541.935942887
 31
0.0
  0
LWPOLYLINE
  5
112
330
1F
100
AcDbEntity
  8
2
  6
Continuous
 62
     1
100
AcDbPolyline
 90
     4
 70
   128
 43
0.0
 10
505.88
 20
573.61
 10
480.88
 20
573.61
 10
480.88
 20
549.61
 10
505.88
 20
549.61
  0
LINE
  5
113
330
1F
100
AcDbEntity
  8
2
  6
Continuous
 62
     1
100
AcDbLine
 10
496.88
 20
556.61
 30
0.0
 11
496.88
 21
566.61
 31
0.0
  0
LINE
  5
114
330
1F
100
AcDbEntity
  8
2
  6
Continuous
 62
     1
100
AcDbLine
 10
496.88
 20
566.61
 30
0.0
 11
480.88
 21
566.61
 31
0.0
  0
LINE
  5
115
330
1F
100
AcDbEntity
  8
2
  6
Continuous
 62
     1
100
AcDbLine
 10
480.88
 20
556.61
 30
0.0
 11
496.88
 21
556.61
 31
0.0
  0
LINE
  5
116
330
1F
100
AcDbEntity
  8
2
  6
Continuous
 62
     1
100
AcDbLine
 10
496.88
 20
559.36
 30
0.0
 11
505.88
 21
559.36
 31
0.0
  0
LINE
  5
117
330
1F
100
AcDbEntity
  8
2
  6
Continuous
 62
     1
100
AcDbLine
 10
496.88
 20
563.86
 30
0.0
 11
505.88
 21
563.86
 31
0.0
  0
LINE
  5
118
330
1F
100
AcDbEntity
  8
0
  6
Continuous
 62
     1
100
AcDbLine
 10
493.68
 20
561.61
 30
0.0
 11
494.88
 21
560.41
 31
0.0
  0
LINE
  5
119
330
1F
100
AcDbEntity
  8
0
  6
Continuous
 62
     1
100
AcDbLine
 10
493.68
 20
561.61
 30
0.0
 11
494.88
 21
562.81
 31
0.0
  0
ARC
  5
11A
330
1F
100
AcDbEntity
  8
0
  6
Continuous
 62
     1
100
AcDbCircle
 10
495.68
 20
559.61
 30
0.0
 40
2.0
100
AcDbArc
 50
180.0
 51
270.0
  0
ARC
  5
11B
330
1F
100
AcDbEntity
  8
0
  6
Continuous
 62
     1
100
AcDbCircle
 10
495.68
 20
563.61
 30
0.0
 40
2.0
100
AcDbArc
 50
90.0
 51
180.0
  0
LINE
  5
11C
330
1F
100
AcDbEntity
  8
2
  6
Continuous
 62
     1
100
AcDbLine
 10
495.68
 20
565.61
 30
0.0
 11
495.68
 21
557.61
 31
0.0
  0
LINE
  5
11D
330
1F
100
AcDbEntity
  8
2
  6
Continuous
 62
     1
100
AcDbLine
 10
493.68
 20
559.61
 30
0.0
 11
493.68
 21
563.61
 31
0.0
  0
LINE
  5
11E
330
1F
100
AcDbEntity
  8
0
  6
Continuous
 62
     1
100
AcDbLine
 10
496.38
 20
562.01
 30
0.0
 11
495.68
 21
561.21
 31
0.0
  0
LINE
  5
11F
330
1F
100
AcDbEntity
  8
2
  6
Continuous
 62
     1
100
AcDbLine
 10
495.68
 20
565.61
 30
0.0
 11
496.38
 21
565.61
 31
0.0
  0
LINE
  5
120
330
1F
100
AcDbEntity
  8
2
  6
Continuous
 62
     1
100
AcDbLine
 10
495.68
 20
557.61
 30
0.0
 11
496.38
 21
557.61
 31
0.0
  0
LINE
  5
121
330
1F
100
AcDbEntity
  8
2
  6
Continuous
 62
     1
100
AcDbLine
 10
500.88
 20
549.61
 30
0.0
 11
500.88
 21
541.454061623
 31
0.0
  0
LINE
  5
122
330
1F
100
AcDbEntity
  8
2
  6
Continuous
 62
     1
100
AcDbLine
 10
502.48
 20
542.454061623
 30
0.0
 11
502.48
 21
549.61
 31
0.0
  0
LINE
  5
123
330
1F
100
AcDbEntity
  8
2
  6
Continuous
 62
     1
100
AcDbLine
 10
504.08
 20
549.61
 30
0.0
 11
504.08
 21
540.26
 31
0.0
  0
LINE
  5
124
330
1F
100
AcDbEntity
  8
2
  6
Continuous
 62
     1
100
AcDbLine
 10
500.88
 20
581.71
 30
0.0
 11
500.88
 21
573.61
 31
0.0
  0
LINE
  5
125
330
1F
100
AcDbEntity
  8
2
  6
Continuous
 62
     1
100
AcDbLine
 10
500.88
 20
600.865938377
 30
0.0
 11
500.88
 21
596.71
 31
0.0
  0
LINE
  5
126
330
1F
100
AcDbEntity
  8
2
  6
Continuous
 62
     1
100
AcDbLine
 10
502.48
 20
596.71
 30
0.0
 11
502.48
 21
599.865938377
 31
0.0
  0
LINE
  5
127
330
1F
100
AcDbEntity
  8
2
  6
Continuous
 62
     1
100
AcDbLine
 10
502.48
 20
573.61
 30
0.0
 11
502.48
 21
581.71
 31
0.0
  0
LINE
  5
128
330
1F
100
AcDbEntity
  8
2
  6
Continuous
 62
     1
100
AcDbLine
 10
504.08
 20
581.71
 30
0.0
 11
504.08
 21
573.61
 31
0.0
  0
LINE
  5
129
330
1F
100
AcDbEntity
  8
2
  6
Continuous
 62
     1
100
AcDbLine
 10
504.08
 20
602.11
 30
0.0
 11
504.08
 21
596.71
 31
0.0
  0
TEXT
  5
12A
330
1F
100
AcDbEntity
  8
2
  6
Continuous
 62
     1
100
AcDbText
 10
431.33
 20
533.05
 30
0.0
 40
15.0
  1
通　風
 41
0.833333333
 51
15.0
  7
KANJI1
100
AcDbText
  0
LWPOLYLINE
  5
12C
330
1F
100
AcDbEntity
  8
2
  6
Continuous
 62
     1
100
AcDbPolyline
 90
     5
 70
   128
 43
0.0
 10
443.84
 20
567.05
 10
443.84
 20
562.05
 10
428.84
 20
572.05
 10
443.84
 20
582.05
 10
443.84
 20
577.05
  0
LINE
  5
12D
330
1F
100
AcDbEntity
  8
2
  6
Continuous
 62
     1
100
AcDbLine
 10
469.34
 20
567.05
 30
0.0
 11
444.34
 21
567.05
 31
0.0
  0
LINE
  5
12E
330
1F
100
AcDbEntity
  8
2
  6
Continuous
 62
     1
100
AcDbLine
 10
444.34
 20
577.05
 30
0.0
 11
469.34
 21
577.05
 31
0.0
  0
LINE
  5
12F
330
1F
100
AcDbEntity
  8
2
  6
Continuous
 62
     1
100
AcDbLine
 10
469.34
 20
577.05
 30
0.0
 11
469.34
 21
572.05
 31
0.0
  0
LINE
  5
130
330
1F
100
AcDbEntity
  8
2
  6
Continuous
 62
     1
100
AcDbLine
 10
469.34
 20
572.05
 30
0.0
 11
469.34
 21
567.05
 31
0.0
  0
LINE
  5
131
330
1F
100
AcDbEntity
  8
2
  6
Continuous
 62
     2
100
AcDbLine
 10
385.38
 20
617.61
 30
0.0
 11
185.38
 21
617.61
 31
0.0
  0
LINE
  5
132
330
1F
100
AcDbEntity
  8
2
  6
Continuous
 62
     2
100
AcDbLine
 10
385.38
 20
524.61
 30
0.0
 11
185.38
 21
524.61
 31
0.0
  0
LINE
  5
133
330
1F
100
AcDbEntity
  8
2
  6
Continuous
 62
     2
100
AcDbLine
 10
185.38
 20
617.61
 30
0.0
 11
185.38
 21
524.61
 31
0.0
  0
LINE
  5
134
330
1F
100
AcDbEntity
  8
2
  6
Continuous
 62
     1
100
AcDbLine
 10
275.245685425
 20
604.094314575
 30
0.0
 11
246.341219331
 21
575.189848481
 31
0.0
  0
LINE
  5
135
330
1F
100
AcDbEntity
  8
2
  6
Continuous
 62
     1
100
AcDbLine
 10
275.245685425
 20
539.214314575
 30
0.0
 11
246.341219331
 21
568.118780669
 31
0.0
  0
ARC
  5
136
330
1F
100
AcDbEntity
  8
2
  6
Continuous
 62
     1
100
AcDbCircle
 10
249.876753237
 20
571.654314575
 30
0.0
 40
5.0
100
AcDbArc
 50
135.0
 51
225.0
  0
LINE
  5
137
330
1F
100
AcDbEntity
  8
2
  6
Continuous
 62
     1
100
AcDbLine
 10
274.114314575
 20
605.225685425
 30
0.0
 11
245.231219331
 21
576.342590181
 31
0.0
  0
LINE
  5
138
330
1F
100
AcDbEntity
  8
2
  6
Continuous
 62
     1
100
AcDbLine
 10
274.114314575
 20
538.125685425
 30
0.0
 11
245.231219331
 21
567.008780669
 31
0.0
  0
ARC
  5
139
330
1F
100
AcDbEntity
  8
2
  6
Continuous
 62
     1
100
AcDbCircle
 10
249.898124087
 20
571.675685425
 30
0.0
 40
6.6
100
AcDbArc
 50
135.0
 51
225.0
  0
LINE
  5
13A
330
1F
100
AcDbEntity
  8
2
  6
Continuous
 62
     1
100
AcDbLine
 10
208.114314575
 20
604.094314575
 30
0.0
 11
237.018780669
 21
575.189848481
 31
0.0
  0
LINE
  5
13B
330
1F
100
AcDbEntity
  8
2
  6
Continuous
 62
     1
100
AcDbLine
 10
208.114314575
 20
539.214314575
 30
0.0
 11
237.018780669
 21
568.118780669
 31
0.0
  0
ARC
  5
13C
330
1F
100
AcDbEntity
  8
2
  6
Continuous
 62
     1
100
AcDbCircle
 10
233.483246763
 20
571.654314575
 30
0.0
 40
5.0
100
AcDbArc
 50
315.0
 51
45.0
  0
LINE
  5
13D
330
1F
100
AcDbEntity
  8
2
  6
Continuous
 62
     1
100
AcDbLine
 10
209.245685425
 20
605.225685425
 30
0.0
 11
238.128780669
 21
576.342590181
 31
0.0
  0
LINE
  5
13E
330
1F
100
AcDbEntity
  8
2
  6
Continuous
 62
     1
100
AcDbLine
 10
209.245685425
 20
538.125685425
 30
0.0
 11
238.128780669
 21
567.008780669
 31
0.0
  0
ARC
  5
13F
330
1F
100
AcDbEntity
  8
2
  6
Continuous
 62
     1
100
AcDbCircle
 10
233.461875913
 20
571.675685425
 30
0.0
 40
6.6
100
AcDbArc
 50
315.0
 51
45.0
  0
ARC
  5
140
330
1F
100
AcDbEntity
  8
2
  6
Continuous
 62
     1
100
AcDbCircle
 10
241.68
 20
571.66
 30
0.0
 40
6.5
100
AcDbArc
 50
232.217114651
 51
308.446031902
  0
ARC
  5
141
330
1F
100
AcDbEntity
  8
2
  6
Continuous
 62
     1
100
AcDbCircle
 10
241.68
 20
571.66
 30
0.0
 40
8.1
100
AcDbArc
 50
230.515626714
 51
309.73931091
  0
ARC
  5
142
330
1F
100
AcDbEntity
  8
2
  6
Continuous
 62
     1
100
AcDbCircle
 10
241.68
 20
571.66
 30
0.0
 40
14.0
100
AcDbArc
 50
228.268595777
 51
311.753614212
  0
ARC
  5
143
330
1F
100
AcDbEntity
  8
2
  6
Continuous
 62
     1
100
AcDbCircle
 10
241.68
 20
571.66
 30
0.0
 40
15.6
100
AcDbArc
 50
227.920805087
 51
311.930422495
  0
ARC
  5
144
330
1F
100
AcDbEntity
  8
2
  6
Continuous
 62
     1
100
AcDbCircle
 10
241.68
 20
571.66
 30
0.0
 40
21.5
100
AcDbArc
 50
227.206847275
 51
312.864444499
  0
ARC
  5
145
330
1F
100
AcDbEntity
  8
2
  6
Continuous
 62
     1
100
AcDbCircle
 10
241.68
 20
571.66
 30
0.0
 40
23.1
100
AcDbArc
 50
227.08661884
 51
312.995429379
  0
ARC
  5
146
330
1F
100
AcDbEntity
  8
2
  6
Continuous
 62
     1
100
AcDbCircle
 10
241.68
 20
571.66
 30
0.0
 40
29.0
100
AcDbArc
 50
226.745372425
 51
313.517471396
  0
ARC
  5
147
330
1F
100
AcDbEntity
  8
2
  6
Continuous
 62
     1
100
AcDbCircle
 10
241.68
 20
571.66
 30
0.0
 40
30.6
100
AcDbArc
 50
226.54846621
 51
313.514787847
  0
ARC
  5
148
330
1F
100
AcDbEntity
  8
2
  6
Continuous
 62
     1
100
AcDbCircle
 10
241.68
 20
571.66
 30
0.0
 40
36.5
100
AcDbArc
 50
226.221440883
 51
313.744432426
  0
ARC
  5
149
330
1F
100
AcDbEntity
  8
2
  6
Continuous
 62
     1
100
AcDbCircle
 10
241.68
 20
571.66
 30
0.0
 40
38.1
100
AcDbArc
 50
226.16932648
 51
313.733307347
  0
ARC
  5
14A
330
1F
100
AcDbEntity
  8
2
  6
Continuous
 62
     1
100
AcDbCircle
 10
241.68
 20
571.66
 30
0.0
 40
38.1
100
AcDbArc
 50
136.299301743
 51
223.755591995
  0
ARC
  5
14B
330
1F
100
AcDbEntity
  8
2
  6
Continuous
 62
     1
100
AcDbCircle
 10
241.68
 20
571.66
 30
0.0
 40
36.5
100
AcDbArc
 50
136.345360232
 51
223.679424768
  0
ARC
  5
14C
330
1F
100
AcDbEntity
  8
2
  6
Continuous
 62
     1
100
AcDbCircle
 10
241.68
 20
571.66
 30
0.0
 40
30.6
100
AcDbArc
 50
136.605466709
 51
223.517334966
  0
ARC
  5
14D
330
1F
100
AcDbEntity
  8
2
  6
Continuous
 62
     1
100
AcDbCircle
 10
241.68
 20
571.66
 30
0.0
 40
29.0
100
AcDbArc
 50
136.666860354
 51
223.395744578
  0
ARC
  5
14E
330
1F
100
AcDbEntity
  8
2
  6
Continuous
 62
     1
100
AcDbCircle
 10
241.68
 20
571.66
 30
0.0
 40
23.1
100
AcDbArc
 50
137.180036314
 51
223.072837375
  0
ARC
  5
14F
330
1F
100
AcDbEntity
  8
2
  6
Continuous
 62
     1
100
AcDbCircle
 10
241.68
 20
571.66
 30
0.0
 40
21.5
100
AcDbArc
 50
137.456885939
 51
222.906220935
  0
ARC
  5
150
330
1F
100
AcDbEntity
  8
2
  6
Continuous
 62
     1
100
AcDbCircle
 10
241.68
 20
571.66
 30
0.0
 40
15.6
100
AcDbArc
 50
137.993127597
 51
222.032528087
  0
ARC
  5
151
330
1F
100
AcDbEntity
  8
2
  6
Continuous
 62
     1
100
AcDbCircle
 10
241.68
 20
571.66
 30
0.0
 40
14.0
100
AcDbArc
 50
138.310842793
 51
221.349874116
  0
ARC
  5
152
330
1F
100
AcDbEntity
  8
2
  6
Continuous
 62
     1
100
AcDbCircle
 10
241.68
 20
571.66
 30
0.0
 40
8.1
100
AcDbArc
 50
140.807650731
 51
219.110080587
  0
ARC
  5
153
330
1F
100
AcDbEntity
  8
2
  6
Continuous
 62
     1
100
AcDbCircle
 10
241.68
 20
571.66
 30
0.0
 40
6.5
100
AcDbArc
 50
142.280867829
 51
217.837184056
  0
ARC
  5
154
330
1F
100
AcDbEntity
  8
2
  6
Continuous
 62
     1
100
AcDbCircle
 10
241.68
 20
571.66
 30
0.0
 40
6.5
100
AcDbArc
 50
52.4460881
 51
127.509404011
  0
ARC
  5
155
330
1F
100
AcDbEntity
  8
2
  6
Continuous
 62
     1
100
AcDbCircle
 10
241.68
 20
571.66
 30
0.0
 40
6.5
100
AcDbArc
 50
322.387876912
 51
37.866180649
  0
ARC
  5
156
330
1F
100
AcDbEntity
  8
2
  6
Continuous
 62
     1
100
AcDbCircle
 10
241.68
 20
571.66
 30
0.0
 40
8.1
100
AcDbArc
 50
51.067849199
 51
129.095546357
  0
ARC
  5
157
330
1F
100
AcDbEntity
  8
2
  6
Continuous
 62
     1
100
AcDbCircle
 10
241.68
 20
571.66
 30
0.0
 40
8.1
100
AcDbArc
 50
320.783766261
 51
38.98503838
  0
ARC
  5
158
330
1F
100
AcDbEntity
  8
2
  6
Continuous
 62
     1
100
AcDbCircle
 10
241.68
 20
571.66
 30
0.0
 40
14.0
100
AcDbArc
 50
48.057357507
 51
131.639208921
  0
ARC
  5
159
330
1F
100
AcDbEntity
  8
2
  6
Continuous
 62
     1
100
AcDbCircle
 10
241.68
 20
571.66
 30
0.0
 40
14.0
100
AcDbArc
 50
318.010344229
 51
41.546444254
  0
ARC
  5
15A
330
1F
100
AcDbEntity
  8
2
  6
Continuous
 62
     1
100
AcDbCircle
 10
241.68
 20
571.66
 30
0.0
 40
15.6
100
AcDbArc
 50
48.151150975
 51
132.093157988
  0
ARC
  5
15B
330
1F
100
AcDbEntity
  8
2
  6
Continuous
 62
     1
100
AcDbCircle
 10
241.68
 20
571.66
 30
0.0
 40
15.6
100
AcDbArc
 50
317.871790509
 51
42.09205666
  0
ARC
  5
15C
330
1F
100
AcDbEntity
  8
2
  6
Continuous
 62
     1
100
AcDbCircle
 10
241.68
 20
571.66
 30
0.0
 40
21.5
100
AcDbArc
 50
47.135880041
 51
132.871017032
  0
ARC
  5
15D
330
1F
100
AcDbEntity
  8
2
  6
Continuous
 62
     1
100
AcDbCircle
 10
241.68
 20
571.66
 30
0.0
 40
21.5
100
AcDbArc
 50
317.108055479
 51
42.69646085
  0
ARC
  5
15E
330
1F
100
AcDbEntity
  8
2
  6
Continuous
 62
     1
100
AcDbCircle
 10
241.68
 20
571.66
 30
0.0
 40
23.1
100
AcDbArc
 50
47.211457574
 51
133.000240667
  0
ARC
  5
15F
330
1F
100
AcDbEntity
  8
2
  6
Continuous
 62
     1
100
AcDbCircle
 10
241.68
 20
571.66
 30
0.0
 40
23.1
100
AcDbArc
 50
317.01545514
 51
42.908086364
  0
ARC
  5
160
330
1F
100
AcDbEntity
  8
2
  6
Continuous
 62
     1
100
AcDbCircle
 10
241.68
 20
571.66
 30
0.0
 40
29.0
100
AcDbArc
 50
46.692140021
 51
133.406503218
  0
ARC
  5
161
330
1F
100
AcDbEntity
  8
2
  6
Continuous
 62
     1
100
AcDbCircle
 10
241.68
 20
571.66
 30
0.0
 40
29.0
100
AcDbArc
 50
316.561707433
 51
43.378140715
  0
ARC
  5
162
330
1F
100
AcDbEntity
  8
2
  6
Continuous
 62
     1
100
AcDbCircle
 10
241.68
 20
571.66
 30
0.0
 40
30.6
100
AcDbArc
 50
46.628688365
 51
133.476942119
  0
ARC
  5
163
330
1F
100
AcDbEntity
  8
2
  6
Continuous
 62
     1
100
AcDbCircle
 10
241.68
 20
571.66
 30
0.0
 40
30.6
100
AcDbArc
 50
316.531704252
 51
43.423521464
  0
ARC
  5
164
330
1F
100
AcDbEntity
  8
2
  6
Continuous
 62
     1
100
AcDbCircle
 10
241.68
 20
571.66
 30
0.0
 40
36.5
100
AcDbArc
 50
46.266891953
 51
133.779575462
  0
ARC
  5
165
330
1F
100
AcDbEntity
  8
2
  6
Continuous
 62
     1
100
AcDbCircle
 10
241.68
 20
571.66
 30
0.0
 40
36.5
100
AcDbArc
 50
316.219478942
 51
43.610101308
  0
ARC
  5
166
330
1F
100
AcDbEntity
  8
2
  6
Continuous
 62
     1
100
AcDbCircle
 10
241.68
 20
571.66
 30
0.0
 40
38.1
100
AcDbArc
 50
46.319146166
 51
133.798211835
  0
ARC
  5
167
330
1F
100
AcDbEntity
  8
2
  6
Continuous
 62
     1
100
AcDbCircle
 10
241.68
 20
571.66
 30
0.0
 40
38.1
100
AcDbArc
 50
316.136227054
 51
43.71156184
  0
CIRCLE
  5
168
330
1F
100
AcDbEntity
  8
2
  6
Continuous
 62
     1
100
AcDbCircle
 10
205.88
 20
535.86
 30
0.0
 40
4.0
  0
CIRCLE
  5
169
330
1F
100
AcDbEntity
  8
2
  6
Continuous
 62
     1
100
AcDbCircle
 10
205.88
 20
607.46
 30
0.0
 40
4.0
  0
CIRCLE
  5
16A
330
1F
100
AcDbEntity
  8
2
  6
Continuous
 62
     1
100
AcDbCircle
 10
277.48
 20
607.46
 30
0.0
 40
4.0
  0
CIRCLE
  5
16B
330
1F
100
AcDbEntity
  8
2
  6
Continuous
 62
     1
100
AcDbCircle
 10
277.48
 20
535.86
 30
0.0
 40
4.0
  0
CIRCLE
  5
16C
330
1F
100
AcDbEntity
  8
2
  6
Continuous
 62
     1
100
AcDbCircle
 10
205.88
 20
535.86
 30
0.0
 40
3.0
  0
LINE
  5
16D
330
1F
100
AcDbEntity
  8
2
  6
Continuous
 62
     1
100
AcDbLine
 10
204.58
 20
534.56
 30
0.0
 11
207.18
 21
537.16
 31
0.0
  0
LINE
  5
16E
330
1F
100
AcDbEntity
  8
2
  6
Continuous
 62
     1
100
AcDbLine
 10
207.18
 20
534.56
 30
0.0
 11
204.58
 21
537.16
 31
0.0
  0
CIRCLE
  5
16F
330
1F
100
AcDbEntity
  8
2
  6
Continuous
 62
     1
100
AcDbCircle
 10
205.88
 20
607.46
 30
0.0
 40
3.0
  0
LINE
  5
170
330
1F
100
AcDbEntity
  8
2
  6
Continuous
 62
     1
100
AcDbLine
 10
204.58
 20
606.16
 30
0.0
 11
207.18
 21
608.76
 31
0.0
  0
LINE
  5
171
330
1F
100
AcDbEntity
  8
2
  6
Continuous
 62
     1
100
AcDbLine
 10
207.18
 20
606.16
 30
0.0
 11
204.58
 21
608.76
 31
0.0
  0
CIRCLE
  5
172
330
1F
100
AcDbEntity
  8
2
  6
Continuous
 62
     1
100
AcDbCircle
 10
277.48
 20
535.86
 30
0.0
 40
3.0
  0
LINE
  5
173
330
1F
100
AcDbEntity
  8
2
  6
Continuous
 62
     1
100
AcDbLine
 10
276.18
 20
534.56
 30
0.0
 11
278.78
 21
537.16
 31
0.0
  0
LINE
  5
174
330
1F
100
AcDbEntity
  8
2
  6
Continuous
 62
     1
100
AcDbLine
 10
278.78
 20
534.56
 30
0.0
 11
276.18
 21
537.16
 31
0.0
  0
CIRCLE
  5
175
330
1F
100
AcDbEntity
  8
2
  6
Continuous
 62
     1
100
AcDbCircle
 10
277.48
 20
607.46
 30
0.0
 40
3.0
  0
LINE
  5
176
330
1F
100
AcDbEntity
  8
2
  6
Continuous
 62
     1
100
AcDbLine
 10
276.18
 20
606.16
 30
0.0
 11
278.78
 21
608.76
 31
0.0
  0
LINE
  5
177
330
1F
100
AcDbEntity
  8
2
  6
Continuous
 62
     1
100
AcDbLine
 10
278.78
 20
606.16
 30
0.0
 11
276.18
 21
608.76
 31
0.0
  0
LINE
  5
178
330
1F
100
AcDbEntity
  8
2
  6
Continuous
 62
     2
100
AcDbLine
 10
385.38
 20
617.61
 30
0.0
 11
385.38
 21
524.61
 31
0.0
  0
ARC
  5
179
330
1F
100
AcDbEntity
  8
2
  6
Continuous
 62
     1
100
AcDbCircle
 10
293.38
 20
561.61
 30
0.0
 40
5.0
100
AcDbArc
 50
270.0
 51
90.0
  0
ARC
  5
17A
330
1F
100
AcDbEntity
  8
2
  6
Continuous
 62
     1
100
AcDbCircle
 10
372.38
 20
561.61
 30
0.0
 40
5.0
100
AcDbArc
 50
90.0
 51
270.0
  0
LINE
  5
17B
330
1F
100
AcDbEntity
  8
2
  6
Continuous
 62
     1
100
AcDbLine
 10
288.38
 20
563.86
 30
0.0
 11
288.38
 21
566.61
 31
0.0
  0
LINE
  5
17C
330
1F
100
AcDbEntity
  8
2
  6
Continuous
 62
     1
100
AcDbLine
 10
288.38
 20
566.61
 30
0.0
 11
293.38
 21
566.61
 31
0.0
  0
LINE
  5
17D
330
1F
100
AcDbEntity
  8
2
  6
Continuous
 62
     1
100
AcDbLine
 10
288.38
 20
566.61
 30
0.0
 11
288.38
 21
573.61
 31
0.0
  0
LINE
  5
17E
330
1F
100
AcDbEntity
  8
2
  6
Continuous
 62
     1
100
AcDbLine
 10
288.38
 20
573.61
 30
0.0
 11
377.38
 21
573.61
 31
0.0
  0
LINE
  5
17F
330
1F
100
AcDbEntity
  8
2
  6
Continuous
 62
     1
100
AcDbLine
 10
377.38
 20
573.61
 30
0.0
 11
377.38
 21
566.61
 31
0.0
  0
LINE
  5
180
330
1F
100
AcDbEntity
  8
2
  6
Continuous
 62
     1
100
AcDbLine
 10
377.38
 20
566.61
 30
0.0
 11
372.38
 21
566.61
 31
0.0
  0
LINE
  5
181
330
1F
100
AcDbEntity
  8
2
  6
Continuous
 62
     1
100
AcDbLine
 10
377.38
 20
566.61
 30
0.0
 11
377.38
 21
563.86
 31
0.0
  0
LINE
  5
182
330
1F
100
AcDbEntity
  8
2
  6
Continuous
 62
     1
100
AcDbLine
 10
377.38
 20
559.36
 30
0.0
 11
377.38
 21
556.61
 31
0.0
  0
LINE
  5
183
330
1F
100
AcDbEntity
  8
2
  6
Continuous
 62
     1
100
AcDbLine
 10
377.38
 20
556.61
 30
0.0
 11
372.38
 21
556.61
 31
0.0
  0
LINE
  5
184
330
1F
100
AcDbEntity
  8
2
  6
Continuous
 62
     1
100
AcDbLine
 10
377.38
 20
556.61
 30
0.0
 11
377.38
 21
549.61
 31
0.0
  0
LINE
  5
185
330
1F
100
AcDbEntity
  8
2
  6
Continuous
 62
     1
100
AcDbLine
 10
377.38
 20
549.61
 30
0.0
 11
288.38
 21
549.61
 31
0.0
  0
LINE
  5
186
330
1F
100
AcDbEntity
  8
2
  6
Continuous
 62
     1
100
AcDbLine
 10
288.38
 20
549.61
 30
0.0
 11
288.38
 21
556.61
 31
0.0
  0
LINE
  5
187
330
1F
100
AcDbEntity
  8
2
  6
Continuous
 62
     1
100
AcDbLine
 10
288.38
 20
556.61
 30
0.0
 11
293.38
 21
556.61
 31
0.0
  0
LINE
  5
188
330
1F
100
AcDbEntity
  8
2
  6
Continuous
 62
     1
100
AcDbLine
 10
288.38
 20
556.61
 30
0.0
 11
288.38
 21
559.36
 31
0.0
  0
LINE
  5
189
330
1F
100
AcDbEntity
  8
2
  6
Continuous
 62
     1
100
AcDbLine
 10
301.58
 20
558.590066226
 30
0.0
 11
301.58
 21
549.61
 31
0.0
  0
LINE
  5
18A
330
1F
100
AcDbEntity
  8
2
  6
Continuous
 62
     1
100
AcDbLine
 10
301.58
 20
573.61
 30
0.0
 11
301.58
 21
564.629933774
 31
0.0
  0
LINE
  5
18B
330
1F
100
AcDbEntity
  8
2
  6
Continuous
 62
     1
100
AcDbLine
 10
312.18
 20
564.629933774
 30
0.0
 11
312.18
 21
573.61
 31
0.0
  0
LINE
  5
18C
330
1F
100
AcDbEntity
  8
2
  6
Continuous
 62
     1
100
AcDbLine
 10
312.18
 20
549.61
 30
0.0
 11
312.18
 21
558.590066226
 31
0.0
  0
ARC
  5
18D
330
1F
100
AcDbEntity
  8
2
  6
Continuous
 62
     1
100
AcDbCircle
 10
306.88
 20
561.61
 30
0.0
 40
6.1
100
AcDbArc
 50
330.325560446
 51
29.674439554
  0
ARC
  5
18E
330
1F
100
AcDbEntity
  8
2
  6
Continuous
 62
     1
100
AcDbCircle
 10
306.88
 20
561.61
 30
0.0
 40
6.1
100
AcDbArc
 50
150.325560446
 51
209.674439554
  0
LINE
  5
18F
330
1F
100
AcDbEntity
  8
2
  6
Continuous
 62
     1
100
AcDbLine
 10
314.58
 20
558.590066226
 30
0.0
 11
314.58
 21
549.61
 31
0.0
  0
LINE
  5
190
330
1F
100
AcDbEntity
  8
2
  6
Continuous
 62
     1
100
AcDbLine
 10
314.58
 20
573.61
 30
0.0
 11
314.58
 21
564.629933774
 31
0.0
  0
LINE
  5
191
330
1F
100
AcDbEntity
  8
2
  6
Continuous
 62
     1
100
AcDbLine
 10
325.18
 20
564.629933774
 30
0.0
 11
325.18
 21
573.61
 31
0.0
  0
LINE
  5
192
330
1F
100
AcDbEntity
  8
2
  6
Continuous
 62
     1
100
AcDbLine
 10
325.18
 20
549.61
 30
0.0
 11
325.18
 21
558.590066226
 31
0.0
  0
ARC
  5
193
330
1F
100
AcDbEntity
  8
2
  6
Continuous
 62
     1
100
AcDbCircle
 10
319.88
 20
561.61
 30
0.0
 40
6.1
100
AcDbArc
 50
330.325560446
 51
29.674439554
  0
ARC
  5
194
330
1F
100
AcDbEntity
  8
2
  6
Continuous
 62
     1
100
AcDbCircle
 10
319.88
 20
561.61
 30
0.0
 40
6.1
100
AcDbArc
 50
150.325560446
 51
209.674439554
  0
LINE
  5
195
330
1F
100
AcDbEntity
  8
2
  6
Continuous
 62
     1
100
AcDbLine
 10
327.58
 20
558.590066226
 30
0.0
 11
327.58
 21
549.61
 31
0.0
  0
LINE
  5
196
330
1F
100
AcDbEntity
  8
2
  6
Continuous
 62
     1
100
AcDbLine
 10
327.58
 20
573.61
 30
0.0
 11
327.58
 21
564.629933774
 31
0.0
  0
LINE
  5
197
330
1F
100
AcDbEntity
  8
2
  6
Continuous
 62
     1
100
AcDbLine
 10
338.18
 20
564.629933774
 30
0.0
 11
338.18
 21
573.61
 31
0.0
  0
LINE
  5
198
330
1F
100
AcDbEntity
  8
2
  6
Continuous
 62
     1
100
AcDbLine
 10
338.18
 20
549.61
 30
0.0
 11
338.18
 21
558.590066226
 31
0.0
  0
ARC
  5
199
330
1F
100
AcDbEntity
  8
2
  6
Continuous
 62
     1
100
AcDbCircle
 10
332.88
 20
561.61
 30
0.0
 40
6.1
100
AcDbArc
 50
330.325560446
 51
29.674439554
  0
ARC
  5
19A
330
1F
100
AcDbEntity
  8
2
  6
Continuous
 62
     1
100
AcDbCircle
 10
332.88
 20
561.61
 30
0.0
 40
6.1
100
AcDbArc
 50
150.325560446
 51
209.674439554
  0
LINE
  5
19B
330
1F
100
AcDbEntity
  8
2
  6
Continuous
 62
     1
100
AcDbLine
 10
340.58
 20
558.590066226
 30
0.0
 11
340.58
 21
549.61
 31
0.0
  0
LINE
  5
19C
330
1F
100
AcDbEntity
  8
2
  6
Continuous
 62
     1
100
AcDbLine
 10
340.58
 20
573.61
 30
0.0
 11
340.58
 21
564.629933774
 31
0.0
  0
LINE
  5
19D
330
1F
100
AcDbEntity
  8
2
  6
Continuous
 62
     1
100
AcDbLine
 10
351.18
 20
564.629933774
 30
0.0
 11
351.18
 21
573.61
 31
0.0
  0
LINE
  5
19E
330
1F
100
AcDbEntity
  8
2
  6
Continuous
 62
     1
100
AcDbLine
 10
351.18
 20
549.61
 30
0.0
 11
351.18
 21
558.590066226
 31
0.0
  0
ARC
  5
19F
330
1F
100
AcDbEntity
  8
2
  6
Continuous
 62
     1
100
AcDbCircle
 10
345.88
 20
561.61
 30
0.0
 40
6.1
100
AcDbArc
 50
330.325560446
 51
29.674439554
  0
ARC
  5
1A0
330
1F
100
AcDbEntity
  8
2
  6
Continuous
 62
     1
100
AcDbCircle
 10
345.88
 20
561.61
 30
0.0
 40
6.1
100
AcDbArc
 50
150.325560446
 51
209.674439554
  0
LINE
  5
1A1
330
1F
100
AcDbEntity
  8
2
  6
Continuous
 62
     1
100
AcDbLine
 10
353.58
 20
558.590066226
 30
0.0
 11
353.58
 21
549.61
 31
0.0
  0
LINE
  5
1A2
330
1F
100
AcDbEntity
  8
2
  6
Continuous
 62
     1
100
AcDbLine
 10
353.58
 20
573.61
 30
0.0
 11
353.58
 21
564.629933774
 31
0.0
  0
LINE
  5
1A3
330
1F
100
AcDbEntity
  8
2
  6
Continuous
 62
     1
100
AcDbLine
 10
364.18
 20
564.629933774
 30
0.0
 11
364.18
 21
573.61
 31
0.0
  0
LINE
  5
1A4
330
1F
100
AcDbEntity
  8
2
  6
Continuous
 62
     1
100
AcDbLine
 10
364.18
 20
549.61
 30
0.0
 11
364.18
 21
558.590066226
 31
0.0
  0
ARC
  5
1A5
330
1F
100
AcDbEntity
  8
2
  6
Continuous
 62
     1
100
AcDbCircle
 10
358.88
 20
561.61
 30
0.0
 40
6.1
100
AcDbArc
 50
330.325560446
 51
29.674439554
  0
ARC
  5
1A6
330
1F
100
AcDbEntity
  8
2
  6
Continuous
 62
     1
100
AcDbCircle
 10
358.88
 20
561.61
 30
0.0
 40
6.1
100
AcDbArc
 50
150.325560446
 51
209.674439554
  0
CIRCLE
  5
1A7
330
1F
100
AcDbEntity
  8
2
  6
Continuous
 62
     1
100
AcDbCircle
 10
306.88
 20
561.61
 30
0.0
 40
4.0
  0
CIRCLE
  5
1A8
330
1F
100
AcDbEntity
  8
2
  6
Continuous
 62
     1
100
AcDbCircle
 10
306.88
 20
561.61
 30
0.0
 40
5.0
  0
LINE
  5
1A9
330
1F
100
AcDbEntity
  8
2
  6
Continuous
 62
     1
100
AcDbLine
 10
305.112233047
 20
563.377766953
 30
0.0
 11
308.647766953
 21
559.842233047
 31
0.0
  0
LINE
  5
1AA
330
1F
100
AcDbEntity
  8
2
  6
Continuous
 62
     1
100
AcDbLine
 10
308.647766953
 20
563.377766953
 30
0.0
 11
305.112233047
 21
559.842233047
 31
0.0
  0
CIRCLE
  5
1AB
330
1F
100
AcDbEntity
  8
2
  6
Continuous
 62
     1
100
AcDbCircle
 10
319.88
 20
561.61
 30
0.0
 40
4.0
  0
CIRCLE
  5
1AC
330
1F
100
AcDbEntity
  8
2
  6
Continuous
 62
     1
100
AcDbCircle
 10
319.88
 20
561.61
 30
0.0
 40
5.0
  0
LINE
  5
1AD
330
1F
100
AcDbEntity
  8
2
  6
Continuous
 62
     1
100
AcDbLine
 10
318.112233047
 20
563.377766953
 30
0.0
 11
321.647766953
 21
559.842233047
 31
0.0
  0
LINE
  5
1AE
330
1F
100
AcDbEntity
  8
2
  6
Continuous
 62
     1
100
AcDbLine
 10
321.647766953
 20
563.377766953
 30
0.0
 11
318.112233047
 21
559.842233047
 31
0.0
  0
CIRCLE
  5
1AF
330
1F
100
AcDbEntity
  8
2
  6
Continuous
 62
     1
100
AcDbCircle
 10
332.88
 20
561.61
 30
0.0
 40
4.0
  0
CIRCLE
  5
1B0
330
1F
100
AcDbEntity
  8
2
  6
Continuous
 62
     1
100
AcDbCircle
 10
332.88
 20
561.61
 30
0.0
 40
5.0
  0
LINE
  5
1B1
330
1F
100
AcDbEntity
  8
2
  6
Continuous
 62
     1
100
AcDbLine
 10
331.112233047
 20
563.377766953
 30
0.0
 11
334.647766953
 21
559.842233047
 31
0.0
  0
LINE
  5
1B2
330
1F
100
AcDbEntity
  8
2
  6
Continuous
 62
     1
100
AcDbLine
 10
334.647766953
 20
563.377766953
 30
0.0
 11
331.112233047
 21
559.842233047
 31
0.0
  0
CIRCLE
  5
1B3
330
1F
100
AcDbEntity
  8
2
  6
Continuous
 62
     1
100
AcDbCircle
 10
345.88
 20
561.61
 30
0.0
 40
4.0
  0
CIRCLE
  5
1B4
330
1F
100
AcDbEntity
  8
2
  6
Continuous
 62
     1
100
AcDbCircle
 10
345.88
 20
561.61
 30
0.0
 40
5.0
  0
LINE
  5
1B5
330
1F
100
AcDbEntity
  8
2
  6
Continuous
 62
     1
100
AcDbLine
 10
344.112233047
 20
563.377766953
 30
0.0
 11
347.647766953
 21
559.842233047
 31
0.0
  0
LINE
  5
1B6
330
1F
100
AcDbEntity
  8
2
  6
Continuous
 62
     1
100
AcDbLine
 10
347.647766953
 20
563.377766953
 30
0.0
 11
344.112233047
 21
559.842233047
 31
0.0
  0
CIRCLE
  5
1B7
330
1F
100
AcDbEntity
  8
2
  6
Continuous
 62
     1
100
AcDbCircle
 10
358.88
 20
561.61
 30
0.0
 40
4.0
  0
CIRCLE
  5
1B8
330
1F
100
AcDbEntity
  8
2
  6
Continuous
 62
     1
100
AcDbCircle
 10
358.88
 20
561.61
 30
0.0
 40
5.0
  0
LINE
  5
1B9
330
1F
100
AcDbEntity
  8
2
  6
Continuous
 62
     1
100
AcDbLine
 10
357.112233047
 20
563.377766953
 30
0.0
 11
360.647766953
 21
559.842233047
 31
0.0
  0
LINE
  5
1BA
330
1F
100
AcDbEntity
  8
2
  6
Continuous
 62
     1
100
AcDbLine
 10
360.647766953
 20
563.377766953
 30
0.0
 11
357.112233047
 21
559.842233047
 31
0.0
  0
CIRCLE
  5
1BB
330
1F
100
AcDbEntity
  8
2
  6
Continuous
 62
     1
100
AcDbCircle
 10
293.38
 20
561.61
 30
0.0
 40
4.0
  0
LINE
  5
1BC
330
1F
100
AcDbEntity
  8
2
  6
Continuous
 62
     1
100
AcDbLine
 10
291.612233047
 20
563.377766953
 30
0.0
 11
295.147766953
 21
559.842233047
 31
0.0
  0
LINE
  5
1BD
330
1F
100
AcDbEntity
  8
2
  6
Continuous
 62
     1
100
AcDbLine
 10
295.147766953
 20
563.377766953
 30
0.0
 11
291.612233047
 21
559.842233047
 31
0.0
  0
CIRCLE
  5
1BE
330
1F
100
AcDbEntity
  8
2
  6
Continuous
 62
     1
100
AcDbCircle
 10
372.38
 20
561.61
 30
0.0
 40
4.0
  0
LINE
  5
1BF
330
1F
100
AcDbEntity
  8
2
  6
Continuous
 62
     1
100
AcDbLine
 10
370.612233047
 20
563.377766953
 30
0.0
 11
374.147766953
 21
559.842233047
 31
0.0
  0
LINE
  5
1C0
330
1F
100
AcDbEntity
  8
2
  6
Continuous
 62
     1
100
AcDbLine
 10
374.147766953
 20
563.377766953
 30
0.0
 11
370.612233047
 21
559.842233047
 31
0.0
  0
LINE
  5
1C1
330
1F
100
AcDbEntity
  8
2
  6
Continuous
 62
     1
100
AcDbLine
 10
288.38
 20
559.36
 30
0.0
 11
290.072810861
 21
559.36
 31
0.0
  0
LINE
  5
1C2
330
1F
100
AcDbEntity
  8
2
  6
Continuous
 62
     1
100
AcDbLine
 10
290.072810861
 20
563.86
 30
0.0
 11
288.38
 21
563.86
 31
0.0
  0
LINE
  5
1C3
330
1F
100
AcDbEntity
  8
2
  6
Continuous
 62
     1
100
AcDbLine
 10
375.687189139
 20
559.36
 30
0.0
 11
377.38
 21
559.36
 31
0.0
  0
LINE
  5
1C4
330
1F
100
AcDbEntity
  8
2
  6
Continuous
 62
     1
100
AcDbLine
 10
377.38
 20
563.86
 30
0.0
 11
375.687189139
 21
563.86
 31
0.0
  0
LWPOLYLINE
  5
1C6
330
1F
100
AcDbEntity
  8
2
  6
Continuous
 62
     1
100
AcDbPolyline
 90
     4
 70
   129
 43
0.0
 10
322.38
 20
581.71
 10
317.38
 20
581.71
 10
317.38
 20
596.71
 10
322.38
 20
596.71
  0
LWPOLYLINE
  5
1C8
330
1F
100
AcDbEntity
  8
2
  6
Continuous
 62
     1
100
AcDbPolyline
 90
     4
 70
   129
 43
0.0
 10
321.38
 20
592.71
 10
318.38
 20
592.71
 10
318.38
 20
594.71
 10
321.38
 20
594.71
  0
CIRCLE
  5
1C9
330
1F
100
AcDbEntity
  8
2
  6
Continuous
 62
     1
100
AcDbCircle
 10
319.88
 20
586.71
 30
0.0
 40
2.0
  0
LINE
  5
1CA
330
1F
100
AcDbEntity
  8
2
  6
Continuous
 62
     1
100
AcDbLine
 10
327.38
 20
581.71
 30
0.0
 11
322.38
 21
581.71
 31
0.0
  0
LWPOLYLINE
  5
1CC
330
1F
100
AcDbEntity
  8
2
  6
Continuous
 62
     1
100
AcDbPolyline
 90
     3
 70
   128
 43
0.0
 10
322.38
 20
596.71
 10
327.38
 20
596.71
 10
327.38
 20
581.71
  0
LWPOLYLINE
  5
1CE
330
1F
100
AcDbEntity
  8
2
  6
Continuous
 62
     1
100
AcDbPolyline
 90
     4
 70
   129
 43
0.0
 10
326.38
 20
592.71
 10
323.38
 20
592.71
 10
323.38
 20
594.71
 10
326.38
 20
594.71
  0
CIRCLE
  5
1CF
330
1F
100
AcDbEntity
  8
2
  6
Continuous
 62
     1
100
AcDbCircle
 10
324.88
 20
586.71
 30
0.0
 40
2.0
  0
LWPOLYLINE
  5
1D1
330
1F
100
AcDbEntity
  8
2
  6
Continuous
 62
     1
100
AcDbPolyline
 90
     4
 70
   129
 43
0.0
 10
333.684048986
 20
584.254126231
 10
328.684048986
 20
584.254126231
 10
328.684048986
 20
591.254126231
 10
333.684048986
 20
591.254126231
  0
LWPOLYLINE
  5
1D3
330
1F
100
AcDbEntity
  8
2
  6
Continuous
 62
     1
100
AcDbPolyline
 90
     4
 70
   129
 43
0.0
 10
332.684048986
 20
586.254126231
 10
331.684048986
 20
586.254126231
 10
331.684048986
 20
589.254126231
 10
332.684048986
 20
589.254126231
  0
LWPOLYLINE
  5
1D5
330
1F
100
AcDbEntity
  8
2
  6
Continuous
 62
     1
100
AcDbPolyline
 90
     4
 70
   129
 43
0.0
 10
330.684048986
 20
586.254126231
 10
329.684048986
 20
586.254126231
 10
329.684048986
 20
589.254126231
 10
330.684048986
 20
589.254126231
  0
LWPOLYLINE
  5
1D7
330
1F
100
AcDbEntity
  8
2
  6
Continuous
 62
     1
100
AcDbPolyline
 90
     4
 70
   129
 43
0.0
 10
332.684048986
 20
588.254126231
 10
331.684048986
 20
588.254126231
 10
331.684048986
 20
589.254126231
 10
332.684048986
 20
589.254126231
  0
LWPOLYLINE
  5
1D9
330
1F
100
AcDbEntity
  8
2
  6
Continuous
 62
     1
100
AcDbPolyline
 90
     4
 70
   129
 43
0.0
 10
330.684048986
 20
588.254126231
 10
329.684048986
 20
588.254126231
 10
329.684048986
 20
589.254126231
 10
330.684048986
 20
589.254126231
  0
LINE
  5
1DA
330
1F
100
AcDbEntity
  8
2
  6
Continuous
 62
     1
100
AcDbLine
 10
342.38
 20
581.71
 30
0.0
 11
337.38
 21
581.71
 31
0.0
  0
LWPOLYLINE
  5
1DC
330
1F
100
AcDbEntity
  8
2
  6
Continuous
 62
     1
100
AcDbPolyline
 90
     3
 70
   128
 43
0.0
 10
337.38
 20
596.71
 10
342.38
 20
596.71
 10
342.38
 20
581.71
  0
LWPOLYLINE
  5
1DE
330
1F
100
AcDbEntity
  8
2
  6
Continuous
 62
     1
100
AcDbPolyline
 90
     4
 70
   129
 43
0.0
 10
341.38
 20
592.71
 10
338.38
 20
592.71
 10
338.38
 20
594.71
 10
341.38
 20
594.71
  0
CIRCLE
  5
1DF
330
1F
100
AcDbEntity
  8
2
  6
Continuous
 62
     1
100
AcDbCircle
 10
339.88
 20
586.71
 30
0.0
 40
2.0
  0
LINE
  5
1E0
330
1F
100
AcDbEntity
  8
2
  6
Continuous
 62
     1
100
AcDbLine
 10
347.38
 20
581.71
 30
0.0
 11
342.38
 21
581.71
 31
0.0
  0
LWPOLYLINE
  5
1E2
330
1F
100
AcDbEntity
  8
2
  6
Continuous
 62
     1
100
AcDbPolyline
 90
     3
 70
   128
 43
0.0
 10
342.38
 20
596.71
 10
347.38
 20
596.71
 10
347.38
 20
581.71
  0
LWPOLYLINE
  5
1E4
330
1F
100
AcDbEntity
  8
2
  6
Continuous
 62
     1
100
AcDbPolyline
 90
     4
 70
   129
 43
0.0
 10
346.38
 20
592.71
 10
343.38
 20
592.71
 10
343.38
 20
594.71
 10
346.38
 20
594.71
  0
CIRCLE
  5
1E5
330
1F
100
AcDbEntity
  8
2
  6
Continuous
 62
     1
100
AcDbCircle
 10
344.88
 20
586.71
 30
0.0
 40
2.0
  0
LINE
  5
1E6
330
1F
100
AcDbEntity
  8
2
  6
Continuous
 62
     1
100
AcDbLine
 10
337.38
 20
596.71
 30
0.0
 11
337.38
 21
581.71
 31
0.0
  0
LWPOLYLINE
  5
1E8
330
1F
100
AcDbEntity
  8
2
  6
Continuous
 62
     1
100
AcDbPolyline
 90
     4
 70
   128
 43
0.0
 10
340.555
 20
602.21
 10
340.555
 20
603.06
 10
344.805
 20
603.06
 10
344.805
 20
602.21
  0
TEXT
  5
1E9
330
1F
100
AcDbEntity
  8
2
  6
Continuous
 62
     1
100
AcDbText
 10
339.33
 20
598.71
 30
0.0
 40
3.4
  1
＋
 41
0.75
  7
KANJI3
100
AcDbText
  0
TEXT
  5
1EB
330
1F
100
AcDbEntity
  8
2
  6
Continuous
 62
     1
100
AcDbText
 10
343.38
 20
598.71
 30
0.0
 40
3.4
  1
－
 41
0.75
  7
KANJI3
100
AcDbText
  0
TEXT
  5
1EC
330
1F
100
AcDbEntity
  8
2
  6
Continuous
 62
     1
100
AcDbText
 10
340.03
 20
604.185
 30
0.0
 40
3.4
  1
ＲＣ
 41
0.75
  7
KANJI3
100
AcDbText
  0
TEXT
  5
1ED
330
1F
100
AcDbEntity
  8
2
  6
Continuous
 62
     1
100
AcDbText
 10
314.85
 20
603.9
 30
0.0
 40
4.0
  1
ＡＬＡＲＭ
 41
0.75
  7
KANJI0
100
AcDbText
  0
LWPOLYLINE
  5
1EF
330
1F
100
AcDbEntity
  8
2
  6
Continuous
 62
     1
100
AcDbPolyline
 90
     4
 70
   128
 43
0.0
 10
319.98
 20
599.91
 10
319.98
 20
600.91
 10
324.98
 20
600.91
 10
324.98
 20
599.91
  0
POINT
  5
1F0
330
1F
100
AcDbEntity
  8
3
  6
Continuous
 62
     1
100
AcDbPoint
 10
315.030252738
 20
641.77
 30
0.0
  0
TEXT
  5
1F1
330
1F
100
AcDbEntity
  8
3
  6
Continuous
 62
     1
100
AcDbText
 10
242.780252738
 20
644.77
 30
0.0
 40
15.0
  1
接点信号出力
 41
0.666666667
  7
KANJI2
100
AcDbText
  0
LINE
  5
1F2
330
1F
100
AcDbEntity
  8
3
  6
Continuous
 62
     1
100
AcDbLine
 10
315.030252738
 20
641.77
 30
0.0
 11
237.680252738
 21
641.77
 31
0.0
  0
LINE
  5
1F3
330
1F
100
AcDbEntity
  8
3
  6
Continuous
 62
     1
100
AcDbLine
 10
218.267081587
 20
494.481142838
 30
0.0
 11
146.017081587
 21
494.481142838
 31
0.0
  0
TEXT
  5
1F4
330
1F
100
AcDbEntity
  8
3
  6
Continuous
 62
     1
100
AcDbText
 10
150.767081587
 20
497.481142838
 30
0.0
 40
15.0
  1
冷却用ファン
 41
0.666666667
  7
KANJI2
100
AcDbText
  0
TEXT
  5
1F5
330
1F
100
AcDbEntity
  8
3
  6
Continuous
 62
     1
100
AcDbText
 10
237.564364118
 20
672.5
 30
0.0
 40
15.0
  1
周波数切替スイッチ
 41
0.666666667
  7
KANJI2
100
AcDbText
  0
LINE
  5
1F6
330
1F
100
AcDbEntity
  8
3
  6
Continuous
 62
     1
100
AcDbLine
 10
237.564364118
 20
669.5
 30
0.0
 11
338.564364118
 21
669.5
 31
0.0
  0
TEXT
  5
1F7
330
1F
100
AcDbEntity
  8
3
  6
Continuous
 62
     1
100
AcDbText
 10
235.770421159
 20
698.75
 30
0.0
 40
15.0
  1
リモートコントロール入力
 41
0.666666667
  7
KANJI2
100
AcDbText
  0
LINE
  5
1F8
330
1F
100
AcDbEntity
  8
3
  6
Continuous
 62
     1
100
AcDbLine
 10
238.220421159
 20
696.1
 30
0.0
 11
373.470421159
 21
696.1
 31
0.0
  0
LINE
  5
1F9
330
1F
100
AcDbEntity
  8
3
  6
Continuous
 62
     1
100
AcDbLine
 10
229.52
 20
473.91
 30
0.0
 11
363.02263789
 21
473.91
 31
0.0
  0
TEXT
  5
1FA
330
1F
100
AcDbEntity
  8
3
  6
Continuous
 62
     1
100
AcDbText
 10
256.29263789
 20
457.23
 30
0.0
 40
15.0
  1
カバー付
 41
0.666666667
  7
KANJI2
100
AcDbText
  0
LINE
  5
1FB
330
1F
100
AcDbEntity
  8
0
  6
Continuous
 62
     1
100
AcDbLine
 10
306.88
 20
541.48
 30
0.0
 11
306.88
 21
537.48
 31
0.0
  0
LINE
  5
1FC
330
1F
100
AcDbEntity
  8
0
  6
Continuous
 62
     1
100
AcDbLine
 10
319.88
 20
537.48
 30
0.0
 11
319.88
 21
541.48
 31
0.0
  0
LINE
  5
1FD
330
1F
100
AcDbEntity
  8
0
  6
Continuous
 62
     1
100
AcDbLine
 10
345.88
 20
541.48
 30
0.0
 11
345.88
 21
537.48
 31
0.0
  0
LINE
  5
1FE
330
1F
100
AcDbEntity
  8
0
  6
Continuous
 62
     1
100
AcDbLine
 10
358.88
 20
537.48
 30
0.0
 11
358.88
 21
541.48
 31
0.0
  0
LINE
  5
1FF
330
1F
100
AcDbEntity
  8
0
  6
Continuous
 62
     1
100
AcDbLine
 10
345.88
 20
537.48
 30
0.0
 11
349.38
 21
537.48
 31
0.0
  0
LINE
  5
200
330
1F
100
AcDbEntity
  8
0
  6
Continuous
 62
     1
100
AcDbLine
 10
355.38
 20
537.48
 30
0.0
 11
358.88
 21
537.48
 31
0.0
  0
TEXT
  5
201
330
1F
100
AcDbEntity
  8
0
  6
Continuous
 62
     1
100
AcDbText
 10
344.38
 20
542.98
 30
0.0
 40
4.0
  1
＋
 41
0.75
  7
KANJI0
100
AcDbText
  0
TEXT
  5
202
330
1F
100
AcDbEntity
  8
0
  6
Continuous
 62
     1
100
AcDbText
 10
357.38
 20
542.98
 30
0.0
 40
4.0
  1
－
 41
0.75
  7
KANJI0
100
AcDbText
  0
TEXT
  5
203
330
1F
100
AcDbEntity
  8
3
  6
Continuous
 62
     1
100
AcDbText
 10
237.07263789
 20
476.91
 30
0.0
 40
15.0
  1
入出力端子台　５－Ｍ４
 41
0.666666667
  7
KANJI2
100
AcDbText
  0
TEXT
  5
204
330
1F
100
AcDbEntity
  8
0
  6
Continuous
 62
     1
100
AcDbText
 10
308.88
 20
535.48
 30
0.0
 40
4.0
  1
ＯＵＴ
 41
0.75
  7
KANJI0
100
AcDbText
  0
TEXT
  5
205
330
1F
100
AcDbEntity
  8
0
  6
Continuous
 62
     1
100
AcDbText
 10
349.38
 20
535.48
 30
0.0
 40
4.0
  1
ＩＮ
 41
0.75
  7
KANJI0
100
AcDbText
  0
LINE
  5
206
330
1F
100
AcDbEntity
  8
0
  6
Continuous
 62
     1
100
AcDbLine
 10
317.88
 20
537.48
 30
0.0
 11
319.88
 21
537.48
 31
0.0
  0
LINE
  5
207
330
1F
100
AcDbEntity
  8
0
  6
Continuous
 62
     1
100
AcDbLine
 10
306.88
 20
537.48
 30
0.0
 11
308.88
 21
537.48
 31
0.0
  0
TEXT
  5
208
330
1F
100
AcDbEntity
  8
0
  6
Continuous
 62
     1
100
AcDbText
 10
305.38
 20
542.98
 30
0.0
 40
4.0
  1
Ｎ
 41
0.75
  7
KANJI0
100
AcDbText
  0
TEXT
  5
209
330
1F
100
AcDbEntity
  8
0
  6
Continuous
 62
     1
100
AcDbText
 10
318.38
 20
542.98
 30
0.0
 40
4.0
  1
Ｌ
 41
0.75
  7
KANJI0
100
AcDbText
  0
TEXT
  5
20A
330
1F
100
AcDbEntity
  8
0
  6
Continuous
 62
     1
100
AcDbText
 10
329.88
 20
542.98
 30
0.0
 40
4.0
  1
ＦＧ
 41
0.75
  7
KANJI0
100
AcDbText
  0
TEXT
  5
20B
330
1F
100
AcDbEntity
  8
0
  6
Continuous
 62
     1
100
AcDbText
 10
181.87
 20
377.75
 30
0.0
 40
15.0
  1
ケース：ボンデ鋼板・アルミ
 41
0.666666667
  7
KANJI4
100
AcDbText
  0
TEXT
  5
20D
330
1F
100
AcDbEntity
  8
0
  6
Continuous
 62
     1
100
AcDbText
 10
181.87
 20
317.75
 30
0.0
 40
15.0
  1
端子カバー：ワンタッチカバー
 41
0.666666667
  7
KANJI4
100
AcDbText
  0
TEXT
  5
20E
330
1F
100
AcDbEntity
  8
0
  6
Continuous
 62
     1
100
AcDbText
 10
181.87
 20
397.75
 30
0.0
 40
15.0
  1
単位：ｍｍ
 41
0.666666667
  7
KANJI4
100
AcDbText
  0
TEXT
  5
20F
330
1F
100
AcDbEntity
  8
0
  6
Continuous
 62
     1
100
AcDbText
 10
181.87
 20
357.75
 30
0.0
 40
15.0
  1
表面処理：ボンデ鋼板　－　マンセル５Ｙ７／１焼付塗装
 41
0.666666667
  7
KANJI4
100
AcDbText
  0
TEXT
  5
210
330
1F
100
AcDbEntity
  8
0
  6
Continuous
 62
     1
100
AcDbText
 10
181.87
 20
417.75
 30
0.0
 40
15.0
  1
公差：±１
 41
0.666666667
  7
KANJI4
100
AcDbText
  0
CIRCLE
  5
211
330
1F
100
AcDbEntity
  8
2
  6
Continuous
 62
     1
100
AcDbCircle
 10
718.38
 20
400.09
 30
0.0
 40
2.0
  0
CIRCLE
  5
212
330
1F
100
AcDbEntity
  8
2
  6
Continuous
 62
     1
100
AcDbCircle
 10
718.38
 20
225.09
 30
0.0
 40
2.0
  0
CIRCLE
  5
213
330
1F
100
AcDbEntity
  8
2
  6
Continuous
 62
     1
100
AcDbCircle
 10
630.88
 20
225.09
 30
0.0
 40
2.0
  0
CIRCLE
  5
214
330
1F
100
AcDbEntity
  8
2
  6
Continuous
 62
     1
100
AcDbCircle
 10
543.38
 20
225.09
 30
0.0
 40
2.0
  0
CIRCLE
  5
215
330
1F
100
AcDbEntity
  8
2
  6
Continuous
 62
     1
100
AcDbCircle
 10
543.38
 20
400.09
 30
0.0
 40
2.0
  0
CIRCLE
  5
216
330
1F
100
AcDbEntity
  8
2
  6
Continuous
 62
     1
100
AcDbCircle
 10
630.88
 20
400.09
 30
0.0
 40
2.0
  0
LINE
  5
217
330
1F
100
AcDbEntity
  8
3
  6
Continuous
 62
     1
100
AcDbLine
 10
538.38
 20
400.09
 30
0.0
 11
548.38
 21
400.09
 31
0.0
  0
LINE
  5
218
330
1F
100
AcDbEntity
  8
3
  6
Continuous
 62
     1
100
AcDbLine
 10
543.38
 20
395.09
 30
0.0
 11
543.38
 21
405.09
 31
0.0
  0
LINE
  5
219
330
1F
100
AcDbEntity
  8
3
  6
Continuous
 62
     1
100
AcDbLine
 10
625.88
 20
400.09
 30
0.0
 11
635.88
 21
400.09
 31
0.0
  0
LINE
  5
21A
330
1F
100
AcDbEntity
  8
3
  6
Continuous
 62
     1
100
AcDbLine
 10
630.88
 20
395.09
 30
0.0
 11
630.88
 21
405.09
 31
0.0
  0
LINE
  5
21B
330
1F
100
AcDbEntity
  8
3
  6
Continuous
 62
     1
100
AcDbLine
 10
713.38
 20
400.09
 30
0.0
 11
723.38
 21
400.09
 31
0.0
  0
LINE
  5
21C
330
1F
100
AcDbEntity
  8
3
  6
Continuous
 62
     1
100
AcDbLine
 10
718.38
 20
395.09
 30
0.0
 11
718.38
 21
405.09
 31
0.0
  0
LINE
  5
21D
330
1F
100
AcDbEntity
  8
3
  6
Continuous
 62
     1
100
AcDbLine
 10
538.38
 20
225.09
 30
0.0
 11
548.38
 21
225.09
 31
0.0
  0
LINE
  5
21E
330
1F
100
AcDbEntity
  8
3
  6
Continuous
 62
     1
100
AcDbLine
 10
543.38
 20
220.09
 30
0.0
 11
543.38
 21
230.09
 31
0.0
  0
LINE
  5
21F
330
1F
100
AcDbEntity
  8
3
  6
Continuous
 62
     1
100
AcDbLine
 10
625.88
 20
225.09
 30
0.0
 11
635.88
 21
225.09
 31
0.0
  0
LINE
  5
220
330
1F
100
AcDbEntity
  8
3
  6
Continuous
 62
     1
100
AcDbLine
 10
630.88
 20
220.09
 30
0.0
 11
630.88
 21
230.09
 31
0.0
  0
LINE
  5
221
330
1F
100
AcDbEntity
  8
3
  6
Continuous
 62
     1
100
AcDbLine
 10
713.38
 20
225.09
 30
0.0
 11
723.38
 21
225.09
 31
0.0
  0
LINE
  5
222
330
1F
100
AcDbEntity
  8
3
  6
Continuous
 62
     1
100
AcDbLine
 10
718.38
 20
220.09
 30
0.0
 11
718.38
 21
230.09
 31
0.0
  0
LINE
  5
223
330
1F
100
AcDbEntity
  8
2
  6
Continuous
 62
     2
100
AcDbLine
 10
755.88
 20
412.59
 30
0.0
 11
755.88
 21
212.59
 31
0.0
  0
TEXT
  5
224
330
1F
100
AcDbEntity
  8
3
  6
Continuous
 62
     1
100
AcDbText
 10
423.434022407
 20
178.651142838
 30
0.0
 40
15.0
  1
６－Ｍ４×Ｄ７
 41
0.666666667
  7
KANJI2
100
AcDbText
  0
TEXT
  5
225
330
1F
100
AcDbEntity
  8
3
  6
Continuous
 62
     1
100
AcDbText
 10
425.136623159
 20
158.723110485
 30
0.0
 40
15.0
  1
取付用ネジ穴
 41
0.666666667
  7
KANJI2
100
AcDbText
  0
LINE
  5
226
330
1F
100
AcDbEntity
  8
3
  6
Continuous
 62
     1
100
AcDbLine
 10
503.434022407
 20
175.751142838
 30
0.0
 11
418.284022407
 21
175.751142838
 31
0.0
  0
LINE
  5
227
330
1F
100
AcDbEntity
  8
0
  6
Continuous
 62
     1
100
AcDbLine
 10
480.88
 20
315.59
 30
0.0
 11
505.88
 21
315.59
 31
0.0
  0
LINE
  5
228
330
1F
100
AcDbEntity
  8
0
  6
Continuous
 62
     1
100
AcDbLine
 10
494.08
 20
341.79
 30
0.0
 11
494.08
 21
352.39
 31
0.0
  0
LINE
  5
229
330
1F
100
AcDbEntity
  8
0
  6
Continuous
 62
     1
100
AcDbLine
 10
494.08
 20
328.79
 30
0.0
 11
494.08
 21
339.39
 31
0.0
  0
LINE
  5
22A
330
1F
100
AcDbEntity
  8
0
  6
Continuous
 62
     1
100
AcDbLine
 10
482.88
 20
341.79
 30
0.0
 11
482.88
 21
339.39
 31
0.0
  0
LINE
  5
22B
330
1F
100
AcDbEntity
  8
0
  6
Continuous
 62
     1
100
AcDbLine
 10
482.88
 20
327.29
 30
0.0
 11
480.88
 21
327.29
 31
0.0
  0
LINE
  5
22C
330
1F
100
AcDbEntity
  8
0
  6
Continuous
 62
     1
100
AcDbLine
 10
482.88
 20
327.29
 30
0.0
 11
482.88
 21
328.79
 31
0.0
  0
LINE
  5
22D
330
1F
100
AcDbEntity
  8
0
  6
Continuous
 62
     1
100
AcDbLine
 10
482.88
 20
353.89
 30
0.0
 11
482.88
 21
352.39
 31
0.0
  0
LINE
  5
22E
330
1F
100
AcDbEntity
  8
0
  6
Continuous
 62
     1
100
AcDbLine
 10
494.08
 20
328.79
 30
0.0
 11
482.08
 21
328.79
 31
0.0
  0
LINE
  5
22F
330
1F
100
AcDbEntity
  8
0
  6
Continuous
 62
     1
100
AcDbLine
 10
494.08
 20
339.39
 30
0.0
 11
482.08
 21
339.39
 31
0.0
  0
LINE
  5
230
330
1F
100
AcDbEntity
  8
0
  6
Continuous
 62
     1
100
AcDbLine
 10
494.08
 20
341.79
 30
0.0
 11
482.08
 21
341.79
 31
0.0
  0
LINE
  5
231
330
1F
100
AcDbEntity
  8
0
  6
Continuous
 62
     1
100
AcDbLine
 10
480.88
 20
315.59
 30
0.0
 11
480.88
 21
327.29
 31
0.0
  0
LINE
  5
232
330
1F
100
AcDbEntity
  8
0
  6
Continuous
 62
     1
100
AcDbLine
 10
494.08
 20
352.39
 30
0.0
 11
482.08
 21
352.39
 31
0.0
  0
LINE
  5
233
330
1F
100
AcDbEntity
  8
0
  6
Continuous
 62
     1
100
AcDbLine
 10
494.08
 20
330.09
 30
0.0
 11
494.08
 21
338.09
 31
0.0
  0
LINE
  5
234
330
1F
100
AcDbEntity
  8
0
  6
Continuous
 62
     1
100
AcDbLine
 10
493.58
 20
334.49
 30
0.0
 11
492.88
 21
333.69
 31
0.0
  0
LINE
  5
235
330
1F
100
AcDbEntity
  8
0
  6
Continuous
 62
     1
100
AcDbLine
 10
490.88
 20
334.09
 30
0.0
 11
492.08
 21
332.89
 31
0.0
  0
LINE
  5
236
330
1F
100
AcDbEntity
  8
0
  6
Continuous
 62
     1
100
AcDbLine
 10
490.88
 20
334.09
 30
0.0
 11
492.08
 21
335.29
 31
0.0
  0
LINE
  5
237
330
1F
100
AcDbEntity
  8
0
  6
Continuous
 62
     1
100
AcDbLine
 10
494.08
 20
343.09
 30
0.0
 11
494.08
 21
351.09
 31
0.0
  0
LINE
  5
238
330
1F
100
AcDbEntity
  8
0
  6
Continuous
 62
     1
100
AcDbLine
 10
480.88
 20
404.59
 30
0.0
 11
505.88
 21
404.59
 31
0.0
  0
LINE
  5
239
330
1F
100
AcDbEntity
  8
0
  6
Continuous
 62
     1
100
AcDbLine
 10
494.08
 20
354.79
 30
0.0
 11
494.08
 21
365.39
 31
0.0
  0
LINE
  5
23A
330
1F
100
AcDbEntity
  8
0
  6
Continuous
 62
     1
100
AcDbLine
 10
482.88
 20
354.79
 30
0.0
 11
482.88
 21
352.39
 31
0.0
  0
LINE
  5
23B
330
1F
100
AcDbEntity
  8
0
  6
Continuous
 62
     1
100
AcDbLine
 10
482.88
 20
366.89
 30
0.0
 11
482.88
 21
365.39
 31
0.0
  0
LINE
  5
23C
330
1F
100
AcDbEntity
  8
0
  6
Continuous
 62
     1
100
AcDbLine
 10
494.08
 20
354.79
 30
0.0
 11
482.08
 21
354.79
 31
0.0
  0
LINE
  5
23D
330
1F
100
AcDbEntity
  8
0
  6
Continuous
 62
     1
100
AcDbLine
 10
494.08
 20
365.39
 30
0.0
 11
482.08
 21
365.39
 31
0.0
  0
LINE
  5
23E
330
1F
100
AcDbEntity
  8
0
  6
Continuous
 62
     1
100
AcDbLine
 10
494.08
 20
356.09
 30
0.0
 11
494.08
 21
364.09
 31
0.0
  0
LINE
  5
23F
330
1F
100
AcDbEntity
  8
0
  6
Continuous
 62
     1
100
AcDbLine
 10
494.08
 20
367.79
 30
0.0
 11
494.08
 21
378.39
 31
0.0
  0
LINE
  5
240
330
1F
100
AcDbEntity
  8
0
  6
Continuous
 62
     1
100
AcDbLine
 10
482.88
 20
367.79
 30
0.0
 11
482.88
 21
365.39
 31
0.0
  0
LINE
  5
241
330
1F
100
AcDbEntity
  8
0
  6
Continuous
 62
     1
100
AcDbLine
 10
482.88
 20
379.89
 30
0.0
 11
482.88
 21
378.39
 31
0.0
  0
LINE
  5
242
330
1F
100
AcDbEntity
  8
0
  6
Continuous
 62
     1
100
AcDbLine
 10
494.08
 20
367.79
 30
0.0
 11
482.08
 21
367.79
 31
0.0
  0
LINE
  5
243
330
1F
100
AcDbEntity
  8
0
  6
Continuous
 62
     1
100
AcDbLine
 10
494.08
 20
378.39
 30
0.0
 11
482.08
 21
378.39
 31
0.0
  0
LINE
  5
244
330
1F
100
AcDbEntity
  8
0
  6
Continuous
 62
     1
100
AcDbLine
 10
494.08
 20
369.09
 30
0.0
 11
494.08
 21
377.09
 31
0.0
  0
LINE
  5
245
330
1F
100
AcDbEntity
  8
0
  6
Continuous
 62
     1
100
AcDbLine
 10
494.08
 20
380.79
 30
0.0
 11
494.08
 21
391.39
 31
0.0
  0
LINE
  5
246
330
1F
100
AcDbEntity
  8
0
  6
Continuous
 62
     1
100
AcDbLine
 10
482.88
 20
380.79
 30
0.0
 11
482.88
 21
378.39
 31
0.0
  0
LINE
  5
247
330
1F
100
AcDbEntity
  8
0
  6
Continuous
 62
     1
100
AcDbLine
 10
482.88
 20
392.89
 30
0.0
 11
480.88
 21
392.89
 31
0.0
  0
LINE
  5
248
330
1F
100
AcDbEntity
  8
0
  6
Continuous
 62
     1
100
AcDbLine
 10
482.88
 20
392.89
 30
0.0
 11
482.88
 21
391.39
 31
0.0
  0
LINE
  5
249
330
1F
100
AcDbEntity
  8
0
  6
Continuous
 62
     1
100
AcDbLine
 10
494.08
 20
380.79
 30
0.0
 11
482.08
 21
380.79
 31
0.0
  0
LINE
  5
24A
330
1F
100
AcDbEntity
  8
0
  6
Continuous
 62
     1
100
AcDbLine
 10
494.08
 20
391.39
 30
0.0
 11
482.08
 21
391.39
 31
0.0
  0
LINE
  5
24B
330
1F
100
AcDbEntity
  8
0
  6
Continuous
 62
     1
100
AcDbLine
 10
494.08
 20
382.09
 30
0.0
 11
494.08
 21
390.09
 31
0.0
  0
LINE
  5
24C
330
1F
100
AcDbEntity
  8
0
  6
Continuous
 62
     1
100
AcDbLine
 10
493.58
 20
329.09
 30
0.0
 11
494.08
 21
329.09
 31
0.0
  0
ARC
  5
24D
330
1F
100
AcDbEntity
  8
0
  6
Continuous
 62
     1
100
AcDbCircle
 10
492.88
 20
332.09
 30
0.0
 40
2.0
100
AcDbArc
 50
180.0
 51
270.0
  0
LINE
  5
24E
330
1F
100
AcDbEntity
  8
0
  6
Continuous
 62
     1
100
AcDbLine
 10
494.08
 20
339.09
 30
0.0
 11
493.58
 21
339.09
 31
0.0
  0
ARC
  5
24F
330
1F
100
AcDbEntity
  8
0
  6
Continuous
 62
     1
100
AcDbCircle
 10
492.88
 20
336.09
 30
0.0
 40
2.0
100
AcDbArc
 50
90.0
 51
180.0
  0
LINE
  5
250
330
1F
100
AcDbEntity
  8
0
  6
Continuous
 62
     1
100
AcDbLine
 10
493.58
 20
347.49
 30
0.0
 11
492.88
 21
346.69
 31
0.0
  0
LINE
  5
251
330
1F
100
AcDbEntity
  8
0
  6
Continuous
 62
     1
100
AcDbLine
 10
490.88
 20
347.09
 30
0.0
 11
492.08
 21
345.89
 31
0.0
  0
LINE
  5
252
330
1F
100
AcDbEntity
  8
0
  6
Continuous
 62
     1
100
AcDbLine
 10
490.88
 20
347.09
 30
0.0
 11
492.08
 21
348.29
 31
0.0
  0
LINE
  5
253
330
1F
100
AcDbEntity
  8
0
  6
Continuous
 62
     1
100
AcDbLine
 10
493.58
 20
342.09
 30
0.0
 11
494.08
 21
342.09
 31
0.0
  0
ARC
  5
254
330
1F
100
AcDbEntity
  8
0
  6
Continuous
 62
     1
100
AcDbCircle
 10
492.88
 20
345.09
 30
0.0
 40
2.0
100
AcDbArc
 50
180.0
 51
270.0
  0
LINE
  5
255
330
1F
100
AcDbEntity
  8
0
  6
Continuous
 62
     1
100
AcDbLine
 10
494.08
 20
352.09
 30
0.0
 11
493.58
 21
352.09
 31
0.0
  0
ARC
  5
256
330
1F
100
AcDbEntity
  8
0
  6
Continuous
 62
     1
100
AcDbCircle
 10
492.88
 20
349.09
 30
0.0
 40
2.0
100
AcDbArc
 50
90.0
 51
180.0
  0
LINE
  5
257
330
1F
100
AcDbEntity
  8
0
  6
Continuous
 62
     1
100
AcDbLine
 10
493.58
 20
360.49
 30
0.0
 11
492.88
 21
359.69
 31
0.0
  0
LINE
  5
258
330
1F
100
AcDbEntity
  8
0
  6
Continuous
 62
     1
100
AcDbLine
 10
490.88
 20
360.09
 30
0.0
 11
492.08
 21
358.89
 31
0.0
  0
LINE
  5
259
330
1F
100
AcDbEntity
  8
0
  6
Continuous
 62
     1
100
AcDbLine
 10
490.88
 20
360.09
 30
0.0
 11
492.08
 21
361.29
 31
0.0
  0
LINE
  5
25A
330
1F
100
AcDbEntity
  8
0
  6
Continuous
 62
     1
100
AcDbLine
 10
493.58
 20
355.09
 30
0.0
 11
494.08
 21
355.09
 31
0.0
  0
ARC
  5
25B
330
1F
100
AcDbEntity
  8
0
  6
Continuous
 62
     1
100
AcDbCircle
 10
492.88
 20
358.09
 30
0.0
 40
2.0
100
AcDbArc
 50
180.0
 51
270.0
  0
LINE
  5
25C
330
1F
100
AcDbEntity
  8
0
  6
Continuous
 62
     1
100
AcDbLine
 10
494.08
 20
365.09
 30
0.0
 11
493.58
 21
365.09
 31
0.0
  0
ARC
  5
25D
330
1F
100
AcDbEntity
  8
0
  6
Continuous
 62
     1
100
AcDbCircle
 10
492.88
 20
362.09
 30
0.0
 40
2.0
100
AcDbArc
 50
90.0
 51
180.0
  0
LINE
  5
25E
330
1F
100
AcDbEntity
  8
0
  6
Continuous
 62
     1
100
AcDbLine
 10
493.58
 20
373.49
 30
0.0
 11
492.88
 21
372.69
 31
0.0
  0
LINE
  5
25F
330
1F
100
AcDbEntity
  8
0
  6
Continuous
 62
     1
100
AcDbLine
 10
490.88
 20
373.09
 30
0.0
 11
492.08
 21
371.89
 31
0.0
  0
LINE
  5
260
330
1F
100
AcDbEntity
  8
0
  6
Continuous
 62
     1
100
AcDbLine
 10
490.88
 20
373.09
 30
0.0
 11
492.08
 21
374.29
 31
0.0
  0
LINE
  5
261
330
1F
100
AcDbEntity
  8
0
  6
Continuous
 62
     1
100
AcDbLine
 10
493.58
 20
368.09
 30
0.0
 11
494.08
 21
368.09
 31
0.0
  0
ARC
  5
262
330
1F
100
AcDbEntity
  8
0
  6
Continuous
 62
     1
100
AcDbCircle
 10
492.88
 20
371.09
 30
0.0
 40
2.0
100
AcDbArc
 50
180.0
 51
270.0
  0
LINE
  5
263
330
1F
100
AcDbEntity
  8
0
  6
Continuous
 62
     1
100
AcDbLine
 10
494.08
 20
378.09
 30
0.0
 11
493.58
 21
378.09
 31
0.0
  0
ARC
  5
264
330
1F
100
AcDbEntity
  8
0
  6
Continuous
 62
     1
100
AcDbCircle
 10
492.88
 20
375.09
 30
0.0
 40
2.0
100
AcDbArc
 50
90.0
 51
180.0
  0
LINE
  5
265
330
1F
100
AcDbEntity
  8
0
  6
Continuous
 62
     1
100
AcDbLine
 10
493.58
 20
386.49
 30
0.0
 11
492.88
 21
385.69
 31
0.0
  0
LINE
  5
266
330
1F
100
AcDbEntity
  8
0
  6
Continuous
 62
     1
100
AcDbLine
 10
490.88
 20
386.09
 30
0.0
 11
492.08
 21
384.89
 31
0.0
  0
LINE
  5
267
330
1F
100
AcDbEntity
  8
0
  6
Continuous
 62
     1
100
AcDbLine
 10
490.88
 20
386.09
 30
0.0
 11
492.08
 21
387.29
 31
0.0
  0
LINE
  5
268
330
1F
100
AcDbEntity
  8
0
  6
Continuous
 62
     1
100
AcDbLine
 10
493.58
 20
381.09
 30
0.0
 11
494.08
 21
381.09
 31
0.0
  0
ARC
  5
269
330
1F
100
AcDbEntity
  8
0
  6
Continuous
 62
     1
100
AcDbCircle
 10
492.88
 20
384.09
 30
0.0
 40
2.0
100
AcDbArc
 50
180.0
 51
270.0
  0
LINE
  5
26A
330
1F
100
AcDbEntity
  8
0
  6
Continuous
 62
     1
100
AcDbLine
 10
494.08
 20
391.09
 30
0.0
 11
493.58
 21
391.09
 31
0.0
  0
ARC
  5
26B
330
1F
100
AcDbEntity
  8
0
  6
Continuous
 62
     1
100
AcDbCircle
 10
492.88
 20
388.09
 30
0.0
 40
2.0
100
AcDbArc
 50
90.0
 51
180.0
  0
TEXT
  5
26C
330
1F
100
AcDbEntity
  8
0
  6
Continuous
 62
     1
100
AcDbText
 10
181.87
 20
337.75
 30
0.0
 40
15.0
  1
　　　　　アルミ　　　－　白アルマイト
 41
0.666666667
  7
KANJI4
100
AcDbText
  0
LWPOLYLINE
  5
26E
330
1F
100
AcDbEntity
  8
2
  6
Continuous
 62
     1
100
AcDbPolyline
 90
     4
 70
   129
 43
0.0
 10
496.88
 20
557.61
 10
496.88
 20
565.61
 10
496.38
 20
565.61
 10
496.38
 20
557.61
  0
LINE
  5
26F
330
1F
100
AcDbEntity
  8
2
  6
Continuous
 62
     1
100
AcDbLine
 10
505.88
 20
581.71
 30
0.0
 11
497.88
 21
581.71
 31
0.0
  0
LINE
  5
270
330
1F
100
AcDbEntity
  8
2
  6
Continuous
 62
     1
100
AcDbLine
 10
497.88
 20
581.71
 30
0.0
 11
497.88
 21
596.71
 31
0.0
  0
LINE
  5
271
330
1F
100
AcDbEntity
  8
2
  6
Continuous
 62
     1
100
AcDbLine
 10
497.88
 20
596.71
 30
0.0
 11
505.88
 21
596.71
 31
0.0
  0
LINE
  5
272
330
1F
100
AcDbEntity
  8
2
  6
Continuous
 62
     2
100
AcDbLine
 10
755.88
 20
412.59
 30
0.0
 11
505.88
 21
412.59
 31
0.0
  0
LINE
  5
273
330
1F
100
AcDbEntity
  8
2
  6
Continuous
 62
     2
100
AcDbLine
 10
755.88
 20
212.59
 30
0.0
 11
505.88
 21
212.59
 31
0.0
  0
LINE
  5
274
330
1F
100
AcDbEntity
  8
2
  6
Continuous
 62
     2
100
AcDbLine
 10
505.88
 20
412.59
 30
0.0
 11
505.88
 21
212.59
 31
0.0
  0
LINE
  5
275
330
1F
100
AcDbEntity
  8
2
  6
Continuous
 62
     1
100
AcDbLine
 10
504.08
 20
268.84
 30
0.0
 11
504.08
 21
237.94
 31
0.0
  0
ARC
  5
276
330
1F
100
AcDbEntity
  8
2
  6
Continuous
 62
     1
100
AcDbCircle
 10
505.08
 20
230.14
 30
0.0
 40
0.8
100
AcDbArc
 50
270.0
 51
0.0
  0
POINT
  5
277
330
1F
100
AcDbEntity
  8
2
  6
Continuous
 62
     1
100
AcDbPoint
 10
505.08
 20
229.34
 30
0.0
  0
ARC
  5
278
330
1F
100
AcDbEntity
  8
2
  6
Continuous
 62
     1
100
AcDbCircle
 10
505.080000001
 20
230.140000001
 30
0.0
 40
0.800000001
100
AcDbArc
 50
180.0
 51
269.99999996
  0
LINE
  5
279
330
1F
100
AcDbEntity
  8
2
  6
Continuous
 62
     1
100
AcDbLine
 10
502.48
 20
240.134061623
 30
0.0
 11
502.48
 21
268.84
 31
0.0
  0
ARC
  5
27A
330
1F
100
AcDbEntity
  8
2
  6
Continuous
 62
     1
100
AcDbCircle
 10
503.28
 20
240.134061623
 30
0.0
 40
0.8
100
AcDbArc
 50
180.0
 51
220.364536573
  0
LINE
  5
27B
330
1F
100
AcDbEntity
  8
2
  6
Continuous
 62
     1
100
AcDbLine
 10
500.88
 20
268.84
 30
0.0
 11
500.88
 21
239.134061623
 31
0.0
  0
LINE
  5
27C
330
1F
100
AcDbEntity
  8
2
  6
Continuous
 62
     1
100
AcDbLine
 10
501.070448546
 20
238.615942887
 30
0.0
 11
503.2005
 21
236.11
 31
0.0
  0
ARC
  5
27D
330
1F
100
AcDbEntity
  8
2
  6
Continuous
 62
     1
100
AcDbCircle
 10
501.68
 20
239.134061623
 30
0.0
 40
0.8
100
AcDbArc
 50
180.0
 51
220.364536573
  0
LINE
  5
27E
330
1F
100
AcDbEntity
  8
2
  6
Continuous
 62
     1
100
AcDbLine
 10
504.08
 20
268.84
 30
0.0
 11
504.08
 21
299.74
 31
0.0
  0
LWPOLYLINE
  5
280
330
1F
100
AcDbEntity
  8
2
  6
Continuous
 62
     1
100
AcDbPolyline
 90
     4
 70
   129
 43
0.0
 10
504.26
 20
308.59
 10
504.26
 20
300.59
 10
503.76
 20
300.59
 10
503.76
 20
308.59
  0
LINE
  5
281
330
1F
100
AcDbEntity
  8
2
  6
Continuous
 62
     1
100
AcDbLine
 10
503.06
 20
301.59
 30
0.0
 11
503.76
 21
301.59
 31
0.0
  0
LWPOLYLINE
  5
283
330
1F
100
AcDbEntity
  8
2
  6
Continuous
 62
     1
100
AcDbPolyline
 90
     3
 70
   128
 43
0.0
 10
503.76
 20
307.59
 10
503.06
 20
307.59
 10
503.06
 20
301.59
  0
LINE
  5
284
330
1F
100
AcDbEntity
  8
2
  6
Continuous
 62
     1
100
AcDbLine
 10
503.76
 20
304.19
 30
0.0
 11
503.06
 21
304.99
 31
0.0
  0
ARC
  5
285
330
1F
100
AcDbEntity
  8
2
  6
Continuous
 62
     1
100
AcDbCircle
 10
503.06
 20
305.59
 30
0.0
 40
2.0
100
AcDbArc
 50
90.0
 51
180.0
  0
ARC
  5
286
330
1F
100
AcDbEntity
  8
2
  6
Continuous
 62
     1
100
AcDbCircle
 10
503.06
 20
303.59
 30
0.0
 40
2.0
100
AcDbArc
 50
180.0
 51
270.0
  0
LINE
  5
287
330
1F
100
AcDbEntity
  8
2
  6
Continuous
 62
     1
100
AcDbLine
 10
501.06
 20
303.59
 30
0.0
 11
501.06
 21
305.59
 31
0.0
  0
LINE
  5
288
330
1F
100
AcDbEntity
  8
2
  6
Continuous
 62
     1
100
AcDbLine
 10
501.06
 20
304.59
 30
0.0
 11
502.26
 21
305.79
 31
0.0
  0
LINE
  5
289
330
1F
100
AcDbEntity
  8
2
  6
Continuous
 62
     1
100
AcDbLine
 10
501.06
 20
304.59
 30
0.0
 11
502.26
 21
303.39
 31
0.0
  0
LINE
  5
28A
330
1F
100
AcDbEntity
  8
2
  6
Continuous
 62
     1
100
AcDbLine
 10
502.48
 20
300.74
 30
0.0
 11
502.48
 21
301.74
 31
0.0
  0
ARC
  5
28B
330
1F
100
AcDbEntity
  8
2
  6
Continuous
 62
     1
100
AcDbCircle
 10
505.08
 20
307.54
 30
0.0
 40
0.8
100
AcDbArc
 50
0.0
 51
90.0
  0
POINT
  5
28C
330
1F
100
AcDbEntity
  8
2
  6
Continuous
 62
     1
100
AcDbPoint
 10
505.08
 20
308.34
 30
0.0
  0
LINE
  5
28D
330
1F
100
AcDbEntity
  8
2
  6
Continuous
 62
     1
100
AcDbLine
 10
504.28
 20
302.84
 30
0.0
 11
504.28
 21
307.54
 31
0.0
  0
ARC
  5
28E
330
1F
100
AcDbEntity
  8
2
  6
Continuous
 62
     1
100
AcDbCircle
 10
505.08
 20
307.54
 30
0.0
 40
0.8
100
AcDbArc
 50
90.0
 51
180.0
  0
LINE
  5
28F
330
1F
100
AcDbEntity
  8
2
  6
Continuous
 62
     1
100
AcDbLine
 10
502.48
 20
297.545938377
 30
0.0
 11
502.48
 21
268.84
 31
0.0
  0
LINE
  5
290
330
1F
100
AcDbEntity
  8
2
  6
Continuous
 62
     1
100
AcDbLine
 10
505.689551454
 20
301.615942887
 30
0.0
 11
502.670448546
 21
298.064057113
 31
0.0
  0
ARC
  5
291
330
1F
100
AcDbEntity
  8
2
  6
Continuous
 62
     1
100
AcDbCircle
 10
503.28
 20
297.545938377
 30
0.0
 40
0.8
100
AcDbArc
 50
139.635463427
 51
180.0
  0
LINE
  5
292
330
1F
100
AcDbEntity
  8
2
  6
Continuous
 62
     1
100
AcDbLine
 10
500.88
 20
268.84
 30
0.0
 11
500.88
 21
298.545938377
 31
0.0
  0
LINE
  5
293
330
1F
100
AcDbEntity
  8
2
  6
Continuous
 62
     1
100
AcDbLine
 10
501.070448546
 20
299.064057113
 30
0.0
 11
503.2005
 21
301.57
 31
0.0
  0
ARC
  5
294
330
1F
100
AcDbEntity
  8
2
  6
Continuous
 62
     1
100
AcDbCircle
 10
501.68
 20
298.545938377
 30
0.0
 40
0.8
100
AcDbArc
 50
139.635463427
 51
180.0
  0
LWPOLYLINE
  5
296
330
1F
100
AcDbEntity
  8
2
  6
Continuous
 62
     1
100
AcDbPolyline
 90
     4
 70
   129
 43
0.0
 10
504.26
 20
229.09
 10
504.26
 20
237.09
 10
503.76
 20
237.09
 10
503.76
 20
229.09
  0
LINE
  5
297
330
1F
100
AcDbEntity
  8
2
  6
Continuous
 62
     1
100
AcDbLine
 10
503.06
 20
236.09
 30
0.0
 11
503.76
 21
236.09
 31
0.0
  0
LWPOLYLINE
  5
299
330
1F
100
AcDbEntity
  8
2
  6
Continuous
 62
     1
100
AcDbPolyline
 90
     3
 70
   128
 43
0.0
 10
503.76
 20
230.09
 10
503.06
 20
230.09
 10
503.06
 20
236.09
  0
LINE
  5
29A
330
1F
100
AcDbEntity
  8
2
  6
Continuous
 62
     1
100
AcDbLine
 10
503.76
 20
233.49
 30
0.0
 11
503.06
 21
232.69
 31
0.0
  0
ARC
  5
29B
330
1F
100
AcDbEntity
  8
2
  6
Continuous
 62
     1
100
AcDbCircle
 10
503.06
 20
232.09
 30
0.0
 40
2.0
100
AcDbArc
 50
180.0
 51
270.0
  0
ARC
  5
29C
330
1F
100
AcDbEntity
  8
2
  6
Continuous
 62
     1
100
AcDbCircle
 10
503.06
 20
234.09
 30
0.0
 40
2.0
100
AcDbArc
 50
90.0
 51
180.0
  0
LINE
  5
29D
330
1F
100
AcDbEntity
  8
2
  6
Continuous
 62
     1
100
AcDbLine
 10
501.06
 20
234.09
 30
0.0
 11
501.06
 21
232.09
 31
0.0
  0
LINE
  5
29E
330
1F
100
AcDbEntity
  8
2
  6
Continuous
 62
     1
100
AcDbLine
 10
501.06
 20
233.09
 30
0.0
 11
502.26
 21
231.89
 31
0.0
  0
LINE
  5
29F
330
1F
100
AcDbEntity
  8
2
  6
Continuous
 62
     1
100
AcDbLine
 10
501.06
 20
233.09
 30
0.0
 11
502.26
 21
234.29
 31
0.0
  0
LINE
  5
2A0
330
1F
100
AcDbEntity
  8
2
  6
Continuous
 62
     1
100
AcDbLine
 10
502.48
 20
236.94
 30
0.0
 11
502.48
 21
235.94
 31
0.0
  0
LINE
  5
2A1
330
1F
100
AcDbEntity
  8
2
  6
Continuous
 62
     1
100
AcDbLine
 10
504.28
 20
234.84
 30
0.0
 11
504.28
 21
230.14
 31
0.0
  0
LINE
  5
2A2
330
1F
100
AcDbEntity
  8
2
  6
Continuous
 62
     1
100
AcDbLine
 10
505.88
 20
235.84
 30
0.0
 11
502.670448546
 21
239.615942887
 31
0.0
  0
LINE
  5
2A3
330
1F
100
AcDbEntity
  8
2
  6
Continuous
 62
     1
100
AcDbLine
 10
480.88
 20
327.29
 30
0.0
 11
480.88
 21
392.89
 31
0.0
  0
LINE
  5
2A4
330
1F
100
AcDbEntity
  8
2
  6
Continuous
 62
     1
100
AcDbLine
 10
480.88
 20
392.89
 30
0.0
 11
480.88
 21
404.59
 31
0.0
  0
LINE
  5
2A5
330
1F
100
AcDbEntity
  8
2
  6
Continuous
 62
     1
100
AcDbLine
 10
482.08
 20
392.89
 30
0.0
 11
482.08
 21
327.29
 31
0.0
  0
LINE
  5
2A6
330
1F
100
AcDbEntity
  8
2
  6
Continuous
 62
     1
100
AcDbLine
 10
493.58
 20
329.09
 30
0.0
 11
493.58
 21
339.09
 31
0.0
  0
LINE
  5
2A7
330
1F
100
AcDbEntity
  8
2
  6
Continuous
 62
     1
100
AcDbLine
 10
492.88
 20
338.09
 30
0.0
 11
493.58
 21
338.09
 31
0.0
  0
LINE
  5
2A8
330
1F
100
AcDbEntity
  8
2
  6
Continuous
 62
     1
100
AcDbLine
 10
492.88
 20
338.09
 30
0.0
 11
492.88
 21
330.09
 31
0.0
  0
LINE
  5
2A9
330
1F
100
AcDbEntity
  8
2
  6
Continuous
 62
     1
100
AcDbLine
 10
492.88
 20
330.09
 30
0.0
 11
493.58
 21
330.09
 31
0.0
  0
LINE
  5
2AA
330
1F
100
AcDbEntity
  8
2
  6
Continuous
 62
     1
100
AcDbLine
 10
490.88
 20
332.09
 30
0.0
 11
490.88
 21
336.09
 31
0.0
  0
LINE
  5
2AB
330
1F
100
AcDbEntity
  8
2
  6
Continuous
 62
     1
100
AcDbLine
 10
493.58
 20
342.09
 30
0.0
 11
493.58
 21
352.09
 31
0.0
  0
LINE
  5
2AC
330
1F
100
AcDbEntity
  8
2
  6
Continuous
 62
     1
100
AcDbLine
 10
492.88
 20
351.09
 30
0.0
 11
493.58
 21
351.09
 31
0.0
  0
LINE
  5
2AD
330
1F
100
AcDbEntity
  8
2
  6
Continuous
 62
     1
100
AcDbLine
 10
492.88
 20
351.09
 30
0.0
 11
492.88
 21
343.09
 31
0.0
  0
LINE
  5
2AE
330
1F
100
AcDbEntity
  8
2
  6
Continuous
 62
     1
100
AcDbLine
 10
492.88
 20
343.09
 30
0.0
 11
493.58
 21
343.09
 31
0.0
  0
LINE
  5
2AF
330
1F
100
AcDbEntity
  8
2
  6
Continuous
 62
     1
100
AcDbLine
 10
490.88
 20
345.09
 30
0.0
 11
490.88
 21
349.09
 31
0.0
  0
LINE
  5
2B0
330
1F
100
AcDbEntity
  8
2
  6
Continuous
 62
     1
100
AcDbLine
 10
493.58
 20
355.09
 30
0.0
 11
493.58
 21
365.09
 31
0.0
  0
LINE
  5
2B1
330
1F
100
AcDbEntity
  8
2
  6
Continuous
 62
     1
100
AcDbLine
 10
492.88
 20
364.09
 30
0.0
 11
493.58
 21
364.09
 31
0.0
  0
LINE
  5
2B2
330
1F
100
AcDbEntity
  8
2
  6
Continuous
 62
     1
100
AcDbLine
 10
492.88
 20
364.09
 30
0.0
 11
492.88
 21
356.09
 31
0.0
  0
LINE
  5
2B3
330
1F
100
AcDbEntity
  8
2
  6
Continuous
 62
     1
100
AcDbLine
 10
492.88
 20
356.09
 30
0.0
 11
493.58
 21
356.09
 31
0.0
  0
LINE
  5
2B4
330
1F
100
AcDbEntity
  8
2
  6
Continuous
 62
     1
100
AcDbLine
 10
490.88
 20
358.09
 30
0.0
 11
490.88
 21
362.09
 31
0.0
  0
LINE
  5
2B5
330
1F
100
AcDbEntity
  8
2
  6
Continuous
 62
     1
100
AcDbLine
 10
493.58
 20
368.09
 30
0.0
 11
493.58
 21
378.09
 31
0.0
  0
LINE
  5
2B6
330
1F
100
AcDbEntity
  8
2
  6
Continuous
 62
     1
100
AcDbLine
 10
492.88
 20
377.09
 30
0.0
 11
493.58
 21
377.09
 31
0.0
  0
LINE
  5
2B7
330
1F
100
AcDbEntity
  8
2
  6
Continuous
 62
     1
100
AcDbLine
 10
492.88
 20
377.09
 30
0.0
 11
492.88
 21
369.09
 31
0.0
  0
LINE
  5
2B8
330
1F
100
AcDbEntity
  8
2
  6
Continuous
 62
     1
100
AcDbLine
 10
492.88
 20
369.09
 30
0.0
 11
493.58
 21
369.09
 31
0.0
  0
LINE
  5
2B9
330
1F
100
AcDbEntity
  8
2
  6
Continuous
 62
     1
100
AcDbLine
 10
490.88
 20
371.09
 30
0.0
 11
490.88
 21
375.09
 31
0.0
  0
LINE
  5
2BA
330
1F
100
AcDbEntity
  8
2
  6
Continuous
 62
     1
100
AcDbLine
 10
493.58
 20
381.09
 30
0.0
 11
493.58
 21
391.09
 31
0.0
  0
LINE
  5
2BB
330
1F
100
AcDbEntity
  8
2
  6
Continuous
 62
     1
100
AcDbLine
 10
492.88
 20
390.09
 30
0.0
 11
493.58
 21
390.09
 31
0.0
  0
LINE
  5
2BC
330
1F
100
AcDbEntity
  8
2
  6
Continuous
 62
     1
100
AcDbLine
 10
492.88
 20
390.09
 30
0.0
 11
492.88
 21
382.09
 31
0.0
  0
LINE
  5
2BD
330
1F
100
AcDbEntity
  8
2
  6
Continuous
 62
     1
100
AcDbLine
 10
492.88
 20
382.09
 30
0.0
 11
493.58
 21
382.09
 31
0.0
  0
LINE
  5
2BE
330
1F
100
AcDbEntity
  8
2
  6
Continuous
 62
     1
100
AcDbLine
 10
490.88
 20
384.09
 30
0.0
 11
490.88
 21
388.09
 31
0.0
  0
LINE
  5
2BF
330
1F
100
AcDbEntity
  8
3
  6
Continuous
 62
     1
100
AcDbLine
 10
755.88
 20
209.59
 30
0.0
 11
755.88
 21
178.245556303
 31
0.0
  0
LINE
  5
2C0
330
1F
100
AcDbEntity
  8
3
  6
Continuous
 62
     1
100
AcDbLine
 10
755.88
 20
184.245556303
 30
0.0
 11
748.635556303
 21
186.186699141
 31
0.0
  0
LINE
  5
2C1
330
1F
100
AcDbEntity
  8
3
  6
Continuous
 62
     1
100
AcDbLine
 10
755.88
 20
184.245556303
 30
0.0
 11
748.635556303
 21
182.304413465
 31
0.0
  0
LWPOLYLINE
  5
2C3
330
1F
100
AcDbEntity
  8
3
  6
Continuous
 62
     1
100
AcDbPolyline
 90
     3
 70
   128
 43
0.0
 10
755.88
 20
184.245556303
 10
718.38
 20
184.245556303
 10
725.624443697
 20
182.304413465
  0
LINE
  5
2C4
330
1F
100
AcDbEntity
  8
3
  6
Continuous
 62
     1
100
AcDbLine
 10
718.38
 20
184.245556303
 30
0.0
 11
725.624443697
 21
186.186699141
 31
0.0
  0
LINE
  5
2C5
330
1F
100
AcDbEntity
  8
3
  6
Continuous
 62
     1
100
AcDbLine
 10
718.38
 20
217.09
 30
0.0
 11
718.38
 21
178.245556303
 31
0.0
  0
LINE
  5
2C6
330
1F
100
AcDbEntity
  8
3
  6
Continuous
 62
     1
100
AcDbLine
 10
718.38
 20
184.245556303
 30
0.0
 11
711.135556303
 21
186.186699141
 31
0.0
  0
LINE
  5
2C7
330
1F
100
AcDbEntity
  8
3
  6
Continuous
 62
     1
100
AcDbLine
 10
718.38
 20
184.245556303
 30
0.0
 11
711.135556303
 21
182.304413465
 31
0.0
  0
LWPOLYLINE
  5
2C9
330
1F
100
AcDbEntity
  8
3
  6
Continuous
 62
     1
100
AcDbPolyline
 90
     3
 70
   128
 43
0.0
 10
718.38
 20
184.245556303
 10
630.88
 20
184.245556303
 10
638.124443697
 20
182.304413465
  0
LINE
  5
2CA
330
1F
100
AcDbEntity
  8
3
  6
Continuous
 62
     1
100
AcDbLine
 10
630.88
 20
184.245556303
 30
0.0
 11
638.124443697
 21
186.186699141
 31
0.0
  0
LINE
  5
2CB
330
1F
100
AcDbEntity
  8
3
  6
Continuous
 62
     1
100
AcDbLine
 10
630.88
 20
217.09
 30
0.0
 11
630.88
 21
178.245556303
 31
0.0
  0
LINE
  5
2CC
330
1F
100
AcDbEntity
  8
3
  6
Continuous
 62
     1
100
AcDbLine
 10
630.88
 20
184.245556303
 30
0.0
 11
623.635556303
 21
186.186699141
 31
0.0
  0
LINE
  5
2CD
330
1F
100
AcDbEntity
  8
3
  6
Continuous
 62
     1
100
AcDbLine
 10
630.88
 20
184.245556303
 30
0.0
 11
623.635556303
 21
182.304413465
 31
0.0
  0
LWPOLYLINE
  5
2CF
330
1F
100
AcDbEntity
  8
3
  6
Continuous
 62
     1
100
AcDbPolyline
 90
     3
 70
   128
 43
0.0
 10
630.88
 20
184.245556303
 10
543.38
 20
184.245556303
 10
550.624443697
 20
182.304413465
  0
LINE
  5
2D0
330
1F
100
AcDbEntity
  8
3
  6
Continuous
 62
     1
100
AcDbLine
 10
543.38
 20
184.245556303
 30
0.0
 11
550.624443697
 21
186.186699141
 31
0.0
  0
LINE
  5
2D1
330
1F
100
AcDbEntity
  8
3
  6
Continuous
 62
     1
100
AcDbLine
 10
543.38
 20
217.09
 30
0.0
 11
543.38
 21
178.245556303
 31
0.0
  0
TEXT
  5
2D2
330
1F
100
AcDbEntity
  8
3
  6
Continuous
 62
     1
100
AcDbText
 10
650.93
 20
187.245556303
 30
0.0
 40
15.0
  1
８７．５
 41
0.666666667
  7
KANJI2
100
AcDbText
  0
TEXT
  5
2D3
330
1F
100
AcDbEntity
  8
3
  6
Continuous
 62
     1
100
AcDbText
 10
563.43
 20
187.245556303
 30
0.0
 40
15.0
  1
８７．５
 41
0.666666667
  7
KANJI2
100
AcDbText
  0
TEXT
  5
2D4
330
1F
100
AcDbEntity
  8
3
  6
Continuous
 62
     1
100
AcDbText
 10
715.32
 20
155.385556303
 30
0.0
 40
15.0
  1
３７．５
 41
0.666666667
  7
KANJI2
100
AcDbText
  0
LINE
  5
2D5
330
1F
100
AcDbEntity
  8
3
  6
Continuous
 62
     1
100
AcDbLine
 10
780.08
 20
165.4
 30
0.0
 11
780.08
 21
225.09
 31
0.0
  0
TEXT
  5
2D6
330
1F
100
AcDbEntity
  8
3
  6
Continuous
 62
     1
100
AcDbText
 10
806.45
 20
164.36
 30
0.0
 40
15.0
  1
１２．５
 50
90.0
 41
0.666666667
  7
KANJI2
100
AcDbText
  0
LINE
  5
2D7
330
1F
100
AcDbEntity
  8
3
  6
Continuous
 62
     1
100
AcDbLine
 10
758.88
 20
212.59
 30
0.0
 11
786.08
 21
212.59
 31
0.0
  0
LINE
  5
2D8
330
1F
100
AcDbEntity
  8
3
  6
Continuous
 62
     1
100
AcDbLine
 10
726.38
 20
225.09
 30
0.0
 11
786.08
 21
225.09
 31
0.0
  0
LINE
  5
2D9
330
1F
100
AcDbEntity
  8
3
  6
Continuous
 62
     1
100
AcDbLine
 10
780.08
 20
225.09
 30
0.0
 11
782.021142838
 21
232.334443697
 31
0.0
  0
LINE
  5
2DA
330
1F
100
AcDbEntity
  8
3
  6
Continuous
 62
     1
100
AcDbLine
 10
780.08
 20
225.09
 30
0.0
 11
778.138857162
 21
232.334443697
 31
0.0
  0
LWPOLYLINE
  5
2DC
330
1F
100
AcDbEntity
  8
3
  6
Continuous
 62
     1
100
AcDbPolyline
 90
     3
 70
   128
 43
0.0
 10
780.08
 20
225.09
 10
780.08
 20
400.09
 10
778.138857162
 20
392.845556303
  0
LINE
  5
2DD
330
1F
100
AcDbEntity
  8
3
  6
Continuous
 62
     1
100
AcDbLine
 10
780.08
 20
400.09
 30
0.0
 11
782.021142838
 21
392.845556303
 31
0.0
  0
LINE
  5
2DE
330
1F
100
AcDbEntity
  8
3
  6
Continuous
 62
     1
100
AcDbLine
 10
726.38
 20
400.09
 30
0.0
 11
786.08
 21
400.09
 31
0.0
  0
LINE
  5
2DF
330
1F
100
AcDbEntity
  8
3
  6
Continuous
 62
     1
100
AcDbLine
 10
780.08
 20
212.59
 30
0.0
 11
778.138857162
 21
205.345556303
 31
0.0
  0
LINE
  5
2E0
330
1F
100
AcDbEntity
  8
3
  6
Continuous
 62
     1
100
AcDbLine
 10
780.08
 20
212.59
 30
0.0
 11
782.021142838
 21
205.345556303
 31
0.0
  0
TEXT
  5
2E1
330
1F
100
AcDbEntity
  8
3
  6
Continuous
 62
     1
100
AcDbText
 10
777.08
 20
294.89
 30
0.0
 40
15.0
  1
１７５
 50
90.0
 41
0.666666667
  7
KANJI2
100
AcDbText
  0
LINE
  5
2E2
330
1F
100
AcDbEntity
  8
3
  6
Continuous
 62
     1
100
AcDbLine
 10
537.814443697
 20
218.261142838
 30
0.0
 11
503.434022407
 21
175.751142838
 31
0.0
  0
LINE
  5
2E3
330
1F
100
AcDbEntity
  8
3
  6
Continuous
 62
     1
100
AcDbLine
 10
537.814443697
 20
218.261142838
 30
0.0
 11
530.714443697
 21
214.461142838
 31
0.0
  0
LINE
  5
2E4
330
1F
100
AcDbEntity
  8
3
  6
Continuous
 62
     1
100
AcDbLine
 10
537.814443697
 20
218.261142838
 30
0.0
 11
534.764443697
 21
211.111142838
 31
0.0
  0
LINE
  5
2E5
330
1F
100
AcDbEntity
  8
3
  6
Continuous
 62
     1
100
AcDbLine
 10
543.38
 20
526.11
 30
0.0
 11
543.38
 21
490.89
 31
0.0
  0
LINE
  5
2E6
330
1F
100
AcDbEntity
  8
3
  6
Continuous
 62
     1
100
AcDbLine
 10
543.38
 20
496.89
 30
0.0
 11
550.624443697
 21
494.948857162
 31
0.0
  0
LINE
  5
2E7
330
1F
100
AcDbEntity
  8
3
  6
Continuous
 62
     1
100
AcDbLine
 10
543.38
 20
496.89
 30
0.0
 11
550.624443697
 21
498.831142838
 31
0.0
  0
LWPOLYLINE
  5
2E9
330
1F
100
AcDbEntity
  8
3
  6
Continuous
 62
     1
100
AcDbPolyline
 90
     3
 70
   128
 43
0.0
 10
543.38
 20
496.89
 10
630.88
 20
496.89
 10
623.635556303
 20
498.831142838
  0
LINE
  5
2EA
330
1F
100
AcDbEntity
  8
3
  6
Continuous
 62
     1
100
AcDbLine
 10
630.88
 20
496.89
 30
0.0
 11
623.635556303
 21
494.948857162
 31
0.0
  0
LINE
  5
2EB
330
1F
100
AcDbEntity
  8
3
  6
Continuous
 62
     1
100
AcDbLine
 10
630.88
 20
526.11
 30
0.0
 11
630.88
 21
490.89
 31
0.0
  0
LINE
  5
2EC
330
1F
100
AcDbEntity
  8
3
  6
Continuous
 62
     1
100
AcDbLine
 10
630.88
 20
526.11
 30
0.0
 11
630.88
 21
490.89
 31
0.0
  0
LINE
  5
2ED
330
1F
100
AcDbEntity
  8
3
  6
Continuous
 62
     1
100
AcDbLine
 10
630.88
 20
496.89
 30
0.0
 11
638.124443697
 21
494.948857162
 31
0.0
  0
LINE
  5
2EE
330
1F
100
AcDbEntity
  8
3
  6
Continuous
 62
     1
100
AcDbLine
 10
630.88
 20
496.89
 30
0.0
 11
638.124443697
 21
498.831142838
 31
0.0
  0
LWPOLYLINE
  5
2F0
330
1F
100
AcDbEntity
  8
3
  6
Continuous
 62
     1
100
AcDbPolyline
 90
     3
 70
   128
 43
0.0
 10
630.88
 20
496.89
 10
718.38
 20
496.89
 10
711.135556303
 20
498.831142838
  0
LINE
  5
2F1
330
1F
100
AcDbEntity
  8
3
  6
Continuous
 62
     1
100
AcDbLine
 10
718.38
 20
496.89
 30
0.0
 11
711.135556303
 21
494.948857162
 31
0.0
  0
LINE
  5
2F2
330
1F
100
AcDbEntity
  8
3
  6
Continuous
 62
     1
100
AcDbLine
 10
718.38
 20
526.11
 30
0.0
 11
718.38
 21
490.89
 31
0.0
  0
LINE
  5
2F3
330
1F
100
AcDbEntity
  8
3
  6
Continuous
 62
     1
100
AcDbLine
 10
543.38
 20
487.89
 30
0.0
 11
543.38
 21
469.28
 31
0.0
  0
LINE
  5
2F4
330
1F
100
AcDbEntity
  8
3
  6
Continuous
 62
     1
100
AcDbLine
 10
543.38
 20
475.28
 30
0.0
 11
550.624443697
 21
473.338857162
 31
0.0
  0
LINE
  5
2F5
330
1F
100
AcDbEntity
  8
3
  6
Continuous
 62
     1
100
AcDbLine
 10
543.38
 20
475.28
 30
0.0
 11
550.624443697
 21
477.221142838
 31
0.0
  0
LWPOLYLINE
  5
2F7
330
1F
100
AcDbEntity
  8
3
  6
Continuous
 62
     1
100
AcDbPolyline
 90
     3
 70
   128
 43
0.0
 10
543.38
 20
475.28
 10
718.38
 20
475.28
 10
711.135556303
 20
477.221142838
  0
LINE
  5
2F8
330
1F
100
AcDbEntity
  8
3
  6
Continuous
 62
     1
100
AcDbLine
 10
718.38
 20
475.28
 30
0.0
 11
711.135556303
 21
473.338857162
 31
0.0
  0
LINE
  5
2F9
330
1F
100
AcDbEntity
  8
3
  6
Continuous
 62
     1
100
AcDbLine
 10
718.38
 20
487.89
 30
0.0
 11
718.38
 21
469.28
 31
0.0
  0
LINE
  5
2FA
330
1F
100
AcDbEntity
  8
3
  6
Continuous
 62
     1
100
AcDbLine
 10
718.38
 20
526.11
 30
0.0
 11
718.38
 21
490.89
 31
0.0
  0
LINE
  5
2FB
330
1F
100
AcDbEntity
  8
3
  6
Continuous
 62
     1
100
AcDbLine
 10
718.38
 20
496.89
 30
0.0
 11
725.624443697
 21
494.948857162
 31
0.0
  0
LINE
  5
2FC
330
1F
100
AcDbEntity
  8
3
  6
Continuous
 62
     1
100
AcDbLine
 10
718.38
 20
496.89
 30
0.0
 11
725.624443697
 21
498.831142838
 31
0.0
  0
LINE
  5
2FD
330
1F
100
AcDbEntity
  8
3
  6
Continuous
 62
     1
100
AcDbLine
 10
718.38
 20
496.89
 30
0.0
 11
755.88
 21
496.89
 31
0.0
  0
LINE
  5
2FE
330
1F
100
AcDbEntity
  8
3
  6
Continuous
 62
     1
100
AcDbLine
 10
755.88
 20
496.89
 30
0.0
 11
748.635556303
 21
498.831142838
 31
0.0
  0
LINE
  5
2FF
330
1F
100
AcDbEntity
  8
3
  6
Continuous
 62
     1
100
AcDbLine
 10
755.88
 20
496.89
 30
0.0
 11
748.635556303
 21
494.948857162
 31
0.0
  0
LINE
  5
300
330
1F
100
AcDbEntity
  8
3
  6
Continuous
 62
     1
100
AcDbLine
 10
755.88
 20
521.41
 30
0.0
 11
755.88
 21
490.89
 31
0.0
  0
TEXT
  5
301
330
1F
100
AcDbEntity
  8
3
  6
Continuous
 62
     1
100
AcDbText
 10
572.43
 20
499.89
 30
0.0
 40
15.0
  1
８７．５
 41
0.666666667
  7
KANJI2
100
AcDbText
  0
TEXT
  5
302
330
1F
100
AcDbEntity
  8
3
  6
Continuous
 62
     1
100
AcDbText
 10
659.93
 20
499.89
 30
0.0
 40
15.0
  1
８７．５
 41
0.666666667
  7
KANJI2
100
AcDbText
  0
TEXT
  5
303
330
1F
100
AcDbEntity
  8
3
  6
Continuous
 62
     1
100
AcDbText
 10
616.33
 20
454.48
 30
0.0
 40
15.0
  1
１７５
 41
0.666666667
  7
KANJI2
100
AcDbText
  0
TEXT
  5
304
330
1F
100
AcDbEntity
  8
3
  6
Continuous
 62
     1
100
AcDbText
 10
723.63
 20
472.74
 30
0.0
 40
15.0
  1
３７．５
 41
0.666666667
  7
KANJI2
100
AcDbText
  0
TEXT
  5
305
330
1F
100
AcDbEntity
  8
3
  6
Continuous
 62
     1
100
AcDbText
 10
804.84
 20
501.65
 30
0.0
 40
15.0
  1
９
 50
90.0
 41
0.666666667
  7
KANJI2
100
AcDbText
  0
LINE
  5
306
330
1F
100
AcDbEntity
  8
3
  6
Continuous
 62
     1
100
AcDbLine
 10
779.48
 20
501.82
 30
0.0
 11
779.48
 21
533.61
 31
0.0
  0
LINE
  5
307
330
1F
100
AcDbEntity
  8
3
  6
Continuous
 62
     1
100
AcDbLine
 10
779.48
 20
533.61
 30
0.0
 11
781.421142838
 21
540.854443697
 31
0.0
  0
LINE
  5
308
330
1F
100
AcDbEntity
  8
3
  6
Continuous
 62
     1
100
AcDbLine
 10
779.48
 20
533.61
 30
0.0
 11
777.538857162
 21
540.854443697
 31
0.0
  0
LWPOLYLINE
  5
30A
330
1F
100
AcDbEntity
  8
3
  6
Continuous
 62
     1
100
AcDbPolyline
 90
     3
 70
   128
 43
0.0
 10
779.48
 20
533.61
 10
779.48
 20
608.61
 10
777.538857162
 20
601.365556303
  0
LINE
  5
30B
330
1F
100
AcDbEntity
  8
3
  6
Continuous
 62
     1
100
AcDbLine
 10
779.48
 20
608.61
 30
0.0
 11
781.421142838
 21
601.365556303
 31
0.0
  0
LINE
  5
30C
330
1F
100
AcDbEntity
  8
3
  6
Continuous
 62
     1
100
AcDbLine
 10
726.38
 20
608.61
 30
0.0
 11
785.48
 21
608.61
 31
0.0
  0
LINE
  5
30D
330
1F
100
AcDbEntity
  8
3
  6
Continuous
 62
     1
100
AcDbLine
 10
726.38
 20
533.61
 30
0.0
 11
785.48
 21
533.61
 31
0.0
  0
LINE
  5
30E
330
1F
100
AcDbEntity
  8
3
  6
Continuous
 62
     1
100
AcDbLine
 10
758.88
 20
524.61
 30
0.0
 11
785.48
 21
524.61
 31
0.0
  0
LINE
  5
30F
330
1F
100
AcDbEntity
  8
3
  6
Continuous
 62
     1
100
AcDbLine
 10
779.48
 20
524.61
 30
0.0
 11
777.538857162
 21
517.365556303
 31
0.0
  0
LINE
  5
310
330
1F
100
AcDbEntity
  8
3
  6
Continuous
 62
     1
100
AcDbLine
 10
779.48
 20
524.61
 30
0.0
 11
781.421142838
 21
517.365556303
 31
0.0
  0
TEXT
  5
311
330
1F
100
AcDbEntity
  8
3
  6
Continuous
 62
     1
100
AcDbText
 10
776.48
 20
562.96
 30
0.0
 40
15.0
  1
７５
 50
90.0
 41
0.666666667
  7
KANJI2
100
AcDbText
  0
LINE
  5
312
330
1F
100
AcDbEntity
  8
3
  6
Continuous
 62
     1
100
AcDbLine
 10
505.88
 20
643.82
 30
0.0
 11
513.124443697
 21
641.878857162
 31
0.0
  0
LINE
  5
313
330
1F
100
AcDbEntity
  8
3
  6
Continuous
 62
     1
100
AcDbLine
 10
505.88
 20
643.82
 30
0.0
 11
513.124443697
 21
645.761142838
 31
0.0
  0
LWPOLYLINE
  5
315
330
1F
100
AcDbEntity
  8
3
  6
Continuous
 62
     1
100
AcDbPolyline
 90
     3
 70
   128
 43
0.0
 10
505.88
 20
643.82
 10
755.88
 20
643.82
 10
748.635556303
 20
645.761142838
  0
LINE
  5
316
330
1F
100
AcDbEntity
  8
3
  6
Continuous
 62
     1
100
AcDbLine
 10
755.88
 20
643.82
 30
0.0
 11
748.635556303
 21
641.878857162
 31
0.0
  0
LINE
  5
317
330
1F
100
AcDbEntity
  8
3
  6
Continuous
 62
     1
100
AcDbLine
 10
755.88
 20
620.61
 30
0.0
 11
755.88
 21
649.82
 31
0.0
  0
LINE
  5
318
330
1F
100
AcDbEntity
  8
3
  6
Continuous
 62
     1
100
AcDbLine
 10
505.88
 20
643.82
 30
0.0
 11
517.13
 21
643.82
 31
0.0
  0
LINE
  5
319
330
1F
100
AcDbEntity
  8
3
  6
Continuous
 62
     1
100
AcDbLine
 10
505.88
 20
643.82
 30
0.0
 11
513.124443697
 21
641.878857162
 31
0.0
  0
LINE
  5
31A
330
1F
100
AcDbEntity
  8
3
  6
Continuous
 62
     1
100
AcDbLine
 10
505.88
 20
643.82
 30
0.0
 11
513.124443697
 21
645.761142838
 31
0.0
  0
LINE
  5
31B
330
1F
100
AcDbEntity
  8
3
  6
Continuous
 62
     1
100
AcDbLine
 10
865.38
 20
620.61
 30
0.0
 11
865.38
 21
649.61
 31
0.0
  0
LINE
  5
31C
330
1F
100
AcDbEntity
  8
3
  6
Continuous
 62
     1
100
AcDbLine
 10
865.38
 20
643.61
 30
0.0
 11
872.624443697
 21
641.668857162
 31
0.0
  0
LINE
  5
31D
330
1F
100
AcDbEntity
  8
3
  6
Continuous
 62
     1
100
AcDbLine
 10
865.38
 20
643.61
 30
0.0
 11
872.624443697
 21
645.551142838
 31
0.0
  0
LWPOLYLINE
  5
31F
330
1F
100
AcDbEntity
  8
3
  6
Continuous
 62
     1
100
AcDbPolyline
 90
     3
 70
   128
 43
0.0
 10
865.38
 20
643.61
 10
1065.38
 20
643.61
 10
1058.135556303
 20
645.551142838
  0
LINE
  5
320
330
1F
100
AcDbEntity
  8
3
  6
Continuous
 62
     1
100
AcDbLine
 10
1065.38
 20
643.61
 30
0.0
 11
1058.135556303
 21
641.668857162
 31
0.0
  0
LINE
  5
321
330
1F
100
AcDbEntity
  8
3
  6
Continuous
 62
     1
100
AcDbLine
 10
1065.38
 20
620.61
 30
0.0
 11
1065.38
 21
649.61
 31
0.0
  0
TEXT
  5
322
330
1F
100
AcDbEntity
  8
3
  6
Continuous
 62
     1
100
AcDbText
 10
619.93
 20
646.82
 30
0.0
 40
15.0
  1
２５０
 41
0.666666667
  7
KANJI2
100
AcDbText
  0
TEXT
  5
323
330
1F
100
AcDbEntity
  8
3
  6
Continuous
 62
     1
100
AcDbText
 10
947.68
 20
646.61
 30
0.0
 40
15.0
  1
２００
 41
0.666666667
  7
KANJI2
100
AcDbText
  0
LINE
  5
324
330
1F
100
AcDbEntity
  8
3
  6
Continuous
 62
     1
100
AcDbLine
 10
873.927614848
 20
669.6
 30
0.0
 11
890.377614848
 21
611.35
 31
0.0
  0
LINE
  5
325
330
1F
100
AcDbEntity
  8
3
  6
Continuous
 62
     1
100
AcDbLine
 10
505.88
 20
643.82
 30
0.0
 11
498.635556303
 21
645.761142838
 31
0.0
  0
LINE
  5
326
330
1F
100
AcDbEntity
  8
3
  6
Continuous
 62
     1
100
AcDbLine
 10
505.88
 20
643.82
 30
0.0
 11
498.635556303
 21
641.878857162
 31
0.0
  0
LINE
  5
327
330
1F
100
AcDbEntity
  8
3
  6
Continuous
 62
     1
100
AcDbLine
 10
505.88
 20
643.82
 30
0.0
 11
430.38
 21
643.82
 31
0.0
  0
LINE
  5
328
330
1F
100
AcDbEntity
  8
3
  6
Continuous
 62
     1
100
AcDbLine
 10
480.88
 20
643.82
 30
0.0
 11
488.124443697
 21
641.878857162
 31
0.0
  0
LINE
  5
329
330
1F
100
AcDbEntity
  8
3
  6
Continuous
 62
     1
100
AcDbLine
 10
480.88
 20
643.82
 30
0.0
 11
488.124443697
 21
645.761142838
 31
0.0
  0
TEXT
  5
32A
330
1F
100
AcDbEntity
  8
3
  6
Continuous
 62
     1
100
AcDbText
 10
430.38
 20
644.82
 30
0.0
 40
15.0
  1
（２５）
 41
0.666666667
  7
KANJI2
100
AcDbText
  0
LINE
  5
32B
330
1F
100
AcDbEntity
  8
3
  6
Continuous
 62
     1
100
AcDbLine
 10
480.88
 20
649.82
 30
0.0
 11
480.88
 21
576.61
 31
0.0
  0
LINE
  5
32C
330
1F
100
AcDbEntity
  8
3
  6
Continuous
 62
     1
100
AcDbLine
 10
505.88
 20
649.82
 30
0.0
 11
505.88
 21
620.61
 31
0.0
  0
LINE
  5
32D
330
1F
100
AcDbEntity
  8
3
  6
Continuous
 62
     1
100
AcDbLine
 10
890.377614848
 20
611.35
 30
0.0
 11
890.359769354
 21
620.46
 31
0.0
  0
LINE
  5
32E
330
1F
100
AcDbEntity
  8
3
  6
Continuous
 62
     1
100
AcDbLine
 10
890.377614848
 20
611.35
 30
0.0
 11
885.727614848
 21
618.85
 31
0.0
  0
LINE
  5
32F
330
1F
100
AcDbEntity
  8
3
  6
Continuous
 62
     1
100
AcDbLine
 10
862.38
 20
524.61
 30
0.0
 11
836.68
 21
524.61
 31
0.0
  0
LINE
  5
330
330
1F
100
AcDbEntity
  8
3
  6
Continuous
 62
     1
100
AcDbLine
 10
842.68
 20
524.61
 30
0.0
 11
844.621142838
 21
531.854443697
 31
0.0
  0
LINE
  5
331
330
1F
100
AcDbEntity
  8
3
  6
Continuous
 62
     1
100
AcDbLine
 10
842.68
 20
524.61
 30
0.0
 11
840.738857162
 21
531.854443697
 31
0.0
  0
LWPOLYLINE
  5
333
330
1F
100
AcDbEntity
  8
3
  6
Continuous
 62
     1
100
AcDbPolyline
 90
     3
 70
   128
 43
0.0
 10
842.68
 20
524.61
 10
842.68
 20
617.61
 10
840.738857162
 20
610.365556303
  0
LINE
  5
334
330
1F
100
AcDbEntity
  8
3
  6
Continuous
 62
     1
100
AcDbLine
 10
842.68
 20
617.61
 30
0.0
 11
844.621142838
 21
610.365556303
 31
0.0
  0
LINE
  5
335
330
1F
100
AcDbEntity
  8
3
  6
Continuous
 62
     1
100
AcDbLine
 10
862.38
 20
617.61
 30
0.0
 11
836.68
 21
617.61
 31
0.0
  0
TEXT
  5
336
330
1F
100
AcDbEntity
  8
3
  6
Continuous
 62
     1
100
AcDbText
 10
838.68
 20
562.86
 30
0.0
 40
15.0
  1
９３
 50
90.0
 41
0.666666667
  7
KANJI2
100
AcDbText
  0
LINE
  5
337
330
1F
100
AcDbEntity
  8
3
  6
Continuous
 62
     1
100
AcDbLine
 10
321.240421159
 20
610.3
 30
0.0
 11
315.030252738
 21
641.77
 31
0.0
  0
LINE
  5
338
330
1F
100
AcDbEntity
  8
3
  6
Continuous
 62
     1
100
AcDbLine
 10
332.230252738
 20
593.98
 30
0.0
 11
338.564364118
 21
669.5
 31
0.0
  0
LINE
  5
339
330
1F
100
AcDbEntity
  8
3
  6
Continuous
 62
     1
100
AcDbLine
 10
346.974364118
 20
610.3
 30
0.0
 11
373.470421159
 21
696.1
 31
0.0
  0
LINE
  5
33A
330
1F
100
AcDbEntity
  8
3
  6
Continuous
 62
     1
100
AcDbLine
 10
321.240421159
 20
610.3
 30
0.0
 11
321.708836626
 21
617.284310055
 31
0.0
  0
LINE
  5
33B
330
1F
100
AcDbEntity
  8
3
  6
Continuous
 62
     1
100
AcDbLine
 10
321.240421159
 20
610.3
 30
0.0
 11
318.153925825
 21
616.582797669
 31
0.0
  0
LINE
  5
33C
330
1F
100
AcDbEntity
  8
3
  6
Continuous
 62
     1
100
AcDbLine
 10
346.974364118
 20
610.3
 30
0.0
 11
350.700497152
 21
616.225869777
 31
0.0
  0
LINE
  5
33D
330
1F
100
AcDbEntity
  8
3
  6
Continuous
 62
     1
100
AcDbLine
 10
346.974364118
 20
610.3
 30
0.0
 11
347.238355095
 21
617.295020283
 31
0.0
  0
LINE
  5
33E
330
1F
100
AcDbEntity
  8
3
  6
Continuous
 62
     1
100
AcDbLine
 10
332.230252738
 20
593.98
 30
0.0
 11
334.600770376
 21
600.566398571
 31
0.0
  0
LINE
  5
33F
330
1F
100
AcDbEntity
  8
3
  6
Continuous
 62
     1
100
AcDbLine
 10
332.230252738
 20
593.98
 30
0.0
 11
330.989981947
 21
600.8692473
 31
0.0
  0
LINE
  5
340
330
1F
100
AcDbEntity
  8
3
  6
Continuous
 62
     1
100
AcDbLine
 10
368.78
 20
546.23
 30
0.0
 11
366.437399892
 21
539.633620331
 31
0.0
  0
LINE
  5
341
330
1F
100
AcDbEntity
  8
3
  6
Continuous
 62
     1
100
AcDbLine
 10
368.78
 20
546.23
 30
0.0
 11
370.04943863
 21
539.34606758
 31
0.0
  0
LINE
  5
342
330
1F
100
AcDbEntity
  8
3
  6
Continuous
 62
     1
100
AcDbLine
 10
368.78
 20
546.23
 30
0.0
 11
363.02263789
 21
473.91
 31
0.0
  0
LINE
  5
343
330
1F
100
AcDbEntity
  8
3
  6
Continuous
 62
     1
100
AcDbLine
 10
235.25
 20
530.33
 30
0.0
 11
230.717941856
 21
524.995166453
 31
0.0
  0
LINE
  5
344
330
1F
100
AcDbEntity
  8
3
  6
Continuous
 62
     1
100
AcDbLine
 10
235.25
 20
530.33
 30
0.0
 11
233.992539289
 21
523.443869551
 31
0.0
  0
LINE
  5
345
330
1F
100
AcDbEntity
  8
3
  6
Continuous
 62
     1
100
AcDbLine
 10
235.25
 20
530.33
 30
0.0
 11
218.267081587
 21
494.481142838
 31
0.0
  0
LINE
  5
346
330
1F
100
AcDbEntity
  8
3
  6
Continuous
 62
     1
100
AcDbLine
 10
388.38
 20
524.61
 30
0.0
 11
409.18
 21
524.61
 31
0.0
  0
LINE
  5
347
330
1F
100
AcDbEntity
  8
3
  6
Continuous
 62
     1
100
AcDbLine
 10
403.18
 20
524.61
 30
0.0
 11
405.121142838
 21
531.854443697
 31
0.0
  0
LINE
  5
348
330
1F
100
AcDbEntity
  8
3
  6
Continuous
 62
     1
100
AcDbLine
 10
403.18
 20
524.61
 30
0.0
 11
401.238857162
 21
531.854443697
 31
0.0
  0
LWPOLYLINE
  5
34A
330
1F
100
AcDbEntity
  8
3
  6
Continuous
 62
     1
100
AcDbPolyline
 90
     3
 70
   128
 43
0.0
 10
403.18
 20
524.61
 10
403.18
 20
561.61
 10
401.238857162
 20
554.365556303
  0
LINE
  5
34B
330
1F
100
AcDbEntity
  8
3
  6
Continuous
 62
     1
100
AcDbLine
 10
403.18
 20
561.61
 30
0.0
 11
405.121142838
 21
554.365556303
 31
0.0
  0
TEXT
  5
34C
330
1F
100
AcDbEntity
  8
3
  6
Continuous
 62
     1
100
AcDbText
 10
400.18
 20
534.71
 30
0.0
 40
9.0
  1
３７
 50
90.0
 41
0.933333333
  7
KANJI5
100
AcDbText
  0
LINE
  5
34E
330
1F
100
AcDbEntity
  8
3
  6
Continuous
 62
     1
100
AcDbLine
 10
377.38
 20
561.61
 30
0.0
 11
409.18
 21
561.61
 31
0.0
  0
LINE
  5
350
330
1F
100
AcDbEntity
  8
0
  6
LTYPE2
 62
     1
100
AcDbLine
 10
540.88
 20
335.09
 30
0.0
 11
510.88
 21
335.09
 31
0.0
  0
LINE
  5
351
330
1F
100
AcDbEntity
  8
0
  6
LTYPE2
 62
     1
100
AcDbLine
 10
510.88
 20
335.09
 30
0.0
 11
510.88
 21
385.09
 31
0.0
  0
LINE
  5
352
330
1F
100
AcDbEntity
  8
0
  6
LTYPE2
 62
     1
100
AcDbLine
 10
510.88
 20
385.09
 30
0.0
 11
540.88
 21
385.09
 31
0.0
  0
LINE
  5
353
330
1F
100
AcDbEntity
  8
0
  6
LTYPE2
 62
     1
100
AcDbLine
 10
540.88
 20
385.09
 30
0.0
 11
540.88
 21
335.09
 31
0.0
  0
TEXT
  5
354
330
1F
100
AcDbEntity
  8
0
  6
Continuous
 62
     1
100
AcDbText
 10
524.04
 20
367.08
 30
0.0
 40
5.0
  1
銘　板
 50
270.0
 41
1.0
  7
KANJI6
100
AcDbText
  0
LINE
  5
356
330
1F
100
AcDbEntity
  8
0
  6
LTYPE2
 62
     1
100
AcDbLine
 10
544.88
 20
285.09
 30
0.0
 11
530.88
 21
285.09
 31
0.0
  0
LINE
  5
357
330
1F
100
AcDbEntity
  8
0
  6
LTYPE2
 62
     1
100
AcDbLine
 10
524.88
 20
285.09
 30
0.0
 11
510.88
 21
285.09
 31
0.0
  0
LINE
  5
358
330
1F
100
AcDbEntity
  8
0
  6
LTYPE2
 62
     1
100
AcDbLine
 10
530.88
 20
325.09
 30
0.0
 11
544.88
 21
325.09
 31
0.0
  0
LINE
  5
359
330
1F
100
AcDbEntity
  8
0
  6
LTYPE2
 62
     1
100
AcDbLine
 10
510.88
 20
325.09
 30
0.0
 11
524.88
 21
325.09
 31
0.0
  0
TEXT
  5
35A
330
1F
100
AcDbEntity
  8
0
  6
Continuous
 62
     1
100
AcDbText
 10
534.88
 20
312.89
 30
0.0
 40
5.0
  1
注　意
 50
270.0
 41
1.0
  7
KANJI6
100
AcDbText
  0
TEXT
  5
35B
330
1F
100
AcDbEntity
  8
0
  6
Continuous
 62
     1
100
AcDbText
 10
514.88
 20
312.89
 30
0.0
 40
5.0
  1
注　意
 50
270.0
 41
1.0
  7
KANJI6
100
AcDbText
  0
LINE
  5
35C
330
1F
100
AcDbEntity
  8
0
  6
LTYPE2
 62
     1
100
AcDbLine
 10
544.88
 20
325.09
 30
0.0
 11
544.88
 21
285.09
 31
0.0
  0
LINE
  5
35D
330
1F
100
AcDbEntity
  8
0
  6
LTYPE2
 62
     1
100
AcDbLine
 10
530.88
 20
285.09
 30
0.0
 11
530.88
 21
325.09
 31
0.0
  0
LINE
  5
35E
330
1F
100
AcDbEntity
  8
0
  6
LTYPE2
 62
     1
100
AcDbLine
 10
510.88
 20
285.09
 30
0.0
 11
510.88
 21
325.09
 31
0.0
  0
LINE
  5
35F
330
1F
100
AcDbEntity
  8
0
  6
LTYPE2
 62
     1
100
AcDbLine
 10
524.88
 20
325.09
 30
0.0
 11
524.88
 21
285.09
 31
0.0
  0
TEXT
  5
360
330
1F
100
AcDbEntity
  8
4
  6
Continuous
 62
     1
100
AcDbText
 10
398.80493221
 20
505.977701297
 30
0.0
 40
8.04
  1
１
 41
0.75
  7
KANJI7
100
AcDbText
  0
LINE
  5
362
330
1F
100
AcDbEntity
  8
4
  6
Continuous
 62
     1
100
AcDbLine
 10
401.615624404
 20
518.124011568
 30
0.0
 11
393.881261063
 21
504.727701297
 31
0.0
  0
LINE
  5
363
330
1F
100
AcDbEntity
  8
4
  6
Continuous
 62
     1
100
AcDbLine
 10
393.881261063
 20
504.727701297
 30
0.0
 11
409.349987745
 21
504.727701297
 31
0.0
  0
LINE
  5
364
330
1F
100
AcDbEntity
  8
4
  6
Continuous
 62
     1
100
AcDbLine
 10
409.349987745
 20
504.727701297
 30
0.0
 11
401.615624404
 21
518.124011568
 31
0.0
  0
LWPOLYLINE
  5
366
330
1F
100
AcDbEntity
  8
3
  6
Continuous
 62
     1
100
AcDbPolyline
 90
     3
 70
   128
 43
0.0
 10
528.53
 20
619.12
 10
562.61
 20
680.99
 10
501.61115
 20
680.99
  0
TEXT
  5
367
330
1F
100
AcDbEntity
  8
3
  6
Continuous
 62
     1
100
AcDbText
 10
501.61115
 20
683.99
 30
0.0
 40
15.0
  1
注意・銘板　
 41
0.66666
 51
10.0
  7
KANJI8
100
AcDbText
  0
LINE
  5
369
330
1F
100
AcDbEntity
  8
3
  6
Continuous
 62
     1
100
AcDbLine
 10
528.53
 20
619.12
 30
0.0
 11
530.325025477
 21
626.402024687
 31
0.0
  0
LINE
  5
36A
330
1F
100
AcDbEntity
  8
3
  6
Continuous
 62
     1
100
AcDbLine
 10
528.53
 20
619.12
 30
0.0
 11
533.725550007
 21
624.528905631
 31
0.0
  0
ENDSEC
  0
SECTION
  2
OBJECTS
  0
DICTIONARY
  5
C
330
0
100
AcDbDictionary
280
     0
281
     1
  3
ACAD_GROUP
350
D
  3
ACAD_LAYOUT
350
1A
  3
ACAD_MLINESTYLE
350
17
  3
ACAD_PLOTSETTINGS
350
19
  3
ACAD_PLOTSTYLENAME
350
E
  0
DICTIONARY
  5
D
102
{ACAD_REACTORS
330
C
102
}
330
C
100
AcDbDictionary
280
     0
281
     1
  0
DICTIONARY
  5
1A
102
{ACAD_REACTORS
330
C
102
}
330
C
100
AcDbDictionary
280
     0
281
     1
  3
Model
350
22
  3
ﾚｲｱｳﾄ1
350
1E
  3
ﾚｲｱｳﾄ2
350
26
  0
LAYOUT
  5
22
102
{ACAD_REACTORS
330
1A
102
}
330
1A
100
AcDbPlotSettings
  1

  2

  4

  6

 40
0.0
 41
0.0
 42
0.0
 43
0.0
 44
0.0
 45
0.0
 46
0.0
 47
0.0
 48
0.0
 49
0.0
140
0.0
141
0.0
142
1.0
143
1.0
 70
  1712
 72
     0
 73
     0
 74
     0
  7

 75
     0
147
1.0
148
0.0
149
0.0
100
AcDbLayout
  1
Model
 70
     1
 71
     0
 10
0.0
 20
0.0
 11
0.0
 21
0.0
 12
0.0
 22
0.0
 32
0.0
 14
0.0
 24
0.0
 34
0.0
 15
0.0
 25
0.0
 35
0.0
146
0.0
 13
0.0
 23
0.0
 33
0.0
 16
1.0
 26
0.0
 36
0.0
 17
0.0
 27
1.0
 37
0.0
 76
     0
330
1F
331
0
345
0
346
0
  0
LAYOUT
  5
1E
102
{ACAD_REACTORS
330
1A
102
}
330
1A
100
AcDbPlotSettings
  1

  2

  4

  6

 40
0.0
 41
0.0
 42
0.0
 43
0.0
 44
0.0
 45
0.0
 46
0.0
 47
0.0
 48
0.0
 49
0.0
140
0.0
141
0.0
142
1.0
143
1.0
 70
   688
 72
     0
 73
     0
 74
     5
  7

 75
    16
147
1.0
148
0.0
149
0.0
100
AcDbLayout
  1
ﾚｲｱｳﾄ1
 70
     1
 71
     1
 10
0.0
 20
0.0
 11
0.0
 21
0.0
 12
0.0
 22
0.0
 32
0.0
 14
0.0
 24
0.0
 34
0.0
 15
0.0
 25
0.0
 35
0.0
146
0.0
 13
0.0
 23
0.0
 33
0.0
 16
1.0
 26
0.0
 36
0.0
 17
0.0
 27
1.0
 37
0.0
 76
     0
330
1B
331
0
345
0
346
0
  0
LAYOUT
  5
26
102
{ACAD_REACTORS
330
1A
102
}
330
1A
100
AcDbPlotSettings
  1

  2

  4

  6

 40
0.0
 41
0.0
 42
0.0
 43
0.0
 44
0.0
 45
0.0
 46
0.0
 47
0.0
 48
0.0
 49
0.0
140
0.0
141
0.0
142
1.0
143
1.0
 70
   688
 72
     0
 73
     0
 74
     5
  7

 75
    16
147
1.0
148
0.0
149
0.0
100
AcDbLayout
  1
ﾚｲｱｳﾄ2
 70
     1
 71
     2
 10
0.0
 20
0.0
 11
0.0
 21
0.0
 12
0.0
 22
0.0
 32
0.0
 14
0.0
 24
0.0
 34
0.0
 15
0.0
 25
0.0
 35
0.0
146
0.0
 13
0.0
 23
0.0
 33
0.0
 16
1.0
 26
0.0
 36
0.0
 17
0.0
 27
1.0
 37
0.0
 76
     0
330
23
331
0
345
0
346
0
  0
DICTIONARY
  5
17
102
{ACAD_REACTORS
330
C
102
}
330
C
100
AcDbDictionary
280
     0
281
     1
  3
Standard
350
18
  0
MLINESTYLE
  5
18
102
{ACAD_REACTORS
330
17
102
}
330
17
100
AcDbMlineStyle
  2
STANDARD
 70
     0
  3

 62
   256
 51
90.0
 52
90.0
 71
     2
 49
0.5
 62
   256
  6
ByLayer
 49
-0.5
 62
   256
  6
ByLayer
  0
DICTIONARY
  5
19
102
{ACAD_REACTORS
330
C
102
}
330
C
100
AcDbDictionary
280
     0
281
     1
  0
ACDBDICTIONARYWDFLT
  5
E
330
C
100
AcDbDictionary
281
     0
  3
Normal
350
F
100
AcDbDictionaryWithDefault
340
F
  0
ACDBPLACEHOLDER
  5
F
102
{ACAD_REACTORS
330
E
102
}
330
E
  0
ENDSEC
  0
EOF
